Wonders - Dance With Me Tonight tab

e|-13--13--10-----------10-----13--13--10------10-----10---------|
B|-12b-12b-10----10---10-------12b-12b-10----10-----10--------10-|
G|------------12b--12b--------------------12b----12b-------12b---|
D|---------------------------------------------------------------|
A|---------------------------------------------------------------|
E|---------------------------------------------------------------|


e|10-----10-----10------10-----10-10-------|
B|-----10-------------10-----10------------|
G|--12b----r12-----12b----12b--------12-10-|
D|-----------------------------------------|
A|-----------------------------------------|
E|-----------------------------------------|

e|-----------------------------------------------|
B|-------------12---10----12br---10--------------|
G|-------------12---10----12br---10--------10-12-|
D|-12-10-12p10---------12-----------12---12------|
A|-----------------------------------------------|
E|-----------------------------------------------|

e|-----------------------------------------------|
B|-12br-10----12br-10----12---12---12br--10------|
G|-12br-10----12br-10----12---12---12br--10------|
D|---------12---------12-12---12---12br-----12---|
A|-----------------------------------------------|
E|-----------------------------------------------|

e|------------10---13----10-----------------------|
B|------10h12-10---12b---10-----------------------|
G|-10h12--------------------12b-10h12-------------|
D|-----------------------------------12----10-8-7-|
A|------------------------------------------------|
E|------------------------------------------------|
Tap to rate this tab
 
# A B C D E F G H I J K L M N O P Q R S T U V W X Y Z