Wonders - That Thing You Do tab

-----------------------------------------------------------------------------
			     That Thing You Do - The Wonders
-----------------------------------------------------------------------------
Tabbed by: Jake Waksbaum
Email: jake.waksbaum@gmail.com

Tuning: Standard

Intro:
		       Am
e|-4----2----0---------0------------------------------------------------|
B|-0----0----0----0----1------------------------------------------------|
G|----------------1----2------------------------------------------------|
D|---------------------2------------------------------------------------|
A|---------------------0------------------------------------------------|
E|---------------------0------------------------------------------------|

E
You
A          B         E
Doin' that thing you do
A          B      C#m           F#
Rippin' my heart into a million pieces
F#m             A B
Like you always doooo

    E
And you
A          B     E
Don't mean to be cruel
A     B    C#m            F#
Never even knew about the heartache
D             B
I've been goin' through


CHORUS 1
C#m                        F#
Well I try and try just to get you girl
         E       E7      A  Am
But it's just so hard to do
E              Am                E  B rest half beat then down strokes
Every time you do that thing you do
VERSE 2

E
I
     A       B         E
Know all the games you play
        A     B      C#m            F#
And I'm gonna find a way to let you know that
F#m                 A B
You'll be mine some day


       E
'Cause we
         A     B         E
Could be happy can't you see
         A    B      C#m           F#
If you'd only let me be the one to hold you
    D                B
And keep you here with me


CHORUS 2
        C#m               F#
Cause I try and try to forget you girl
         E       E7      A  Am
But it's just so hard to do
E              Am                E  B rest half beat then down strokes
Every time you do that thing you do


BRIDGE
A
I don't ask a lot girl
      C#m
But I know one thing for sure
           F#
It's your love I haven't got girl
      B                  C     B
And I just can't take it any more


SOLO FOR RHYTHM GUITAR (Verse chords)
E
A B E
A B C#m F#
F#m B

SOLO FOR LEAD GUITAR

e|--------------------------------------------------------------------|
B|--------------------------------------------------------------------|
G|--9--9------9--11br--9---------9--9------9--11br--9------9------9---|
D|--------11--------------11--9--------11--------------11-----11------|
A|--------------------------------------------------------------------|
E|--------------------------------------------------------------------|

e|--------------------------------------------------------------------|
B|--------------------------------------------------------------------|
G|--11b~~--9--11b~~--9--11--11b~~--9--11b~~--9--11--11b~~--9----------|
D|--------------------------------------------------------------------|
A|--------------------------------------------------------------------|
E|--------------------------------------------------------------------|

e|-----------------|
B|-----------------|
G|-----------------|
D|--11--9--10--9---|
A|-----------------|
E|-----------------|



VERSE 3 (2nd half of verse 2)
       E
'Cause we
         A     B         E
Could be happy can't you see
         A    B      C#m           F#
If you'd only let me be the one to hold you
    F#m                B
And keep you here with me


CHORUS 3
        C#m                  F#
Cause it hurts me so just to see you go
  E         E7      A  Am
Around with someone new
       E                 Am			OUTRO RIFF 1
And if I know you you're doin' that thing
E              Am			  OUTRO RIFF 2
Every day just doin' that thing
E                B                       OUTRO RIFF 3
I can't take you doin' that thing you do.

OUTRO:

Outro riff 1: Optional
--------------------------------------------------------------------|
--------------------------------------------------------------------|
--11br--9-----------------------------------------------------------|
-----------9--------------------------------------------------------|
--------------------------------------------------------------------|
--------------------------------------------------------------------|

Outro riff 2: Optional
--------------------------------------------------------------------|
--9--10b(12)r--9----------------------------------------------------|
------------------9-------------------------------------------------|
--------------------------------------------------------------------|
--------------------------------------------------------------------|
--------------------------------------------------------------------|


Outro riff 3: MANDATORY
  A     Am                E6
--------------------------4-----------------------------------------|
--------1-----------------4-----------------------------------------|
-----------2--------------4-----------------------------------------|
-----2-----------------2--6-----------------------------------------|
--0-----------------2-----7-----------------------------------------|
--------------0--4--------4-----------------------------------------|
Tap to rate this tab
 
# A B C D E F G H I J K L M N O P Q R S T U V W X Y Z