Song name
# A B C D E F G H I J K L M N O P Q R S T U V W X Y Z

Wonders - Shrimp Shack Shop tab

------------------------------------------------------------------|
------------------------------------------------------------------|
----------0-0-2-0-------0-0-2-0-----------------------------------|
------2-2-----------2-2---------------------0---------------0-----|
--3-3------------3-3----------------0-0-3-3---3-----0-0-3-3---3---|
---------------------------------1-1-------------1-1--------------|

------------------------------------------------------------------------------------------------------|
------------------------------------------------------------------------------------------------------|
----------0-0-2-0--------0-0-2-0----------------------------------------------0-0-2-0--------0-0-2-0--|
------2-2------------2-2----------------------0-0-2-0--------0-0-2-0------2-2------------2-2----------|
-3-3-------------3-3----------------------2-2------------2-2-----------3-3-----------3-3--------------|
--------------------------------------3-3-------------3-3---------------------------------------------|


-------------------------------------------------------------|
-------------------------------------------------------------|
------2--3-2------------------2-3-2-----------------------0--|
---3---------3-------2------3-------3----4-4-4-4-4-4-4-4-----|
-3-------------3--3-------3-----------3----------------------|
-------------------------------------------------------------|
Tap to rate this tab
# A B C D E F G H I J K L M N O P Q R S T U V W X Y Z