Song name
# A B C D E F G H I J K L M N O P Q R S T U V W X Y Z

Woodie - The Way You Feel tab

The Way You Feel
By Lil' Los/Shadow/Shawna/Woodie


chorus:
E---13--13---1313----13-----|---13--13---1313----1513---|
B-16--16---16-----16--------|-16--16---16-----16-----16-|
G---------------------------|---------------------------|
D---------------------------|---------------------------|
A---------------------------|---------------------------|
E---------------------------|---------------------------|

E---13--13---1313----13-----|---16---15-----------------|
B-16--16---16-----16--------|-------------16------------|
G---------------------------|---------------------------|
D---------------------------|---------------------------|
A---------------------------|---------------------------|
E---------------------------|---------------------------|

verse:
E-15--------------|-----------------|-15--------------|-----------------|
B----16-15--------|-----15---16-----|----16-15--------|-----------------|
G----------15-12--|--12-------------|----------15-12--|--12-------------|
D-----------------|-----------------|-----------------|-----12---13-----|
A-----------------|-----------------|-----------------|-----------------|
E-----------------|-----------------|-----------------|-----------------|


Tabs Submitted by Leo Geraghty
Tap to rate this tab
# A B C D E F G H I J K L M N O P Q R S T U V W X Y Z