Song name
# A B C D E F G H I J K L M N O P Q R S T U V W X Y Z

Woodkid - Iron tab

- WOODKID
- IRON

Tuning: D G C F A D

      




      Intro/Main Riff:
 
 Chords: Am-Dm-A#-Am

 D|--5--5--6--5--|
 A|--5--6--6--5--|
 F|--5--7--7--5--|
 C|--7--7--8--7--| x2
 G|--7--5--8--7--|
 D|--5--x--6--5--|

 Tabs :

 D|-----5-----------|
 A|--5-----8--6--5--|
 F|-----------------|
 C|-----------------| x2
 G|-----------------|
 D|-----------------|

      


     
      Verse:

(Deep in the ocean, dead and cast away...)

 Chords:

 D|--------------|
 A|--------------|
 F|--------------|
 C|--2--3--2--0--| x4
 G|--3--5--2--2--|
 D|--5--7--4--4--|

      



      Intro/Main Riff:

 Chords: Am-Dm-A#-Am

 D|--5--5--6--5--|
 A|--5--6--6--5--|
 F|--5--7--7--5--|
 C|--7--7--8--7--| x2
 G|--7--5--8--7--|
 D|--5--x--6--5--|

 Tabs :

 D|-----5-----------|
 A|--5-----8--6--5--|
 F|-----------------|
 C|-----------------| x2
 G|-----------------|
 D|-----------------|





      Verse:

(The sound of iron shocks is stuck in my head...)

 Chords:

 D|--------------|
 A|--------------|
 F|--------------|
 C|--2--3--2--0--| x2
 G|--3--5--2--2--|
 D|--5--7--4--4--|

(From the down of time to the end of days...)

 D|--------------|
 A|--------------|
 F|--------------|
 C|--2--3--3--2--| x2
 G|--3--5--5--2--|
 D|--5--6--5--4--|

      



      Intro/Main Riff:

 Chords: Am-Dm-A#-Am

 D|--5--5--6--5--|
 A|--5--6--6--5--|
 F|--5--7--7--5--|
 C|--7--7--8--7--| x2
 G|--7--5--8--7--|
 D|--5--x--6--5--|

 Tabs :

 D|-----5-----------|
 A|--5-----8--6--5--|
 F|-----------------|
 C|-----------------| x2
 G|-----------------|
 D|-----------------|






      Bridge:

I divided this part for 2 guitars,
but you can try to play it with just one guitar.

 Guitar 1

                             (This deadly burst of snow...)

 D|------------|------------|-----------|-------------|
 A|-----0--2--3-------------|----------------------0--|
 F|--2-----------3--1--2--2-|-0--1--2-----0--1--2-----|
 C|-------------------------|----------3--------------|
 G|-------------------------|-------------------------|
 D|------------|------------|-----------|-------------|

 Guitar 2
                       
                             (This deadly burst of snow...)
 
 D|------------|------------|-----------|-------------|
 A|-------------------------|-------------------------|
 F|-------------------------|-------------------------|
 C|-------------------------|----------------------0--| 
 G|--3--2--0--0--5--2--3--2-|-3--2--0-----3--2--3-----|
 D|--5--4--3--1|------------|----------1|-------------|
  



If you want to play it in one guitar:

                             (This deadly burst of snow...)                        

 D|------------|------------|-----------|-------------|
 A|-----0--2--3-------------|----------------------0--|
 F|--2-----------3--1--2--2-|-0--1--2-----0--1--2-----|
 C|-------------------------|----------3-----------0--|
 G|--3--2--0--0--5--2--3--2-|-3--2--0-----3--2--3-----|
 D|--5--4--3--1|------------|----------1|-------------|





      Intro/Main Riff:

 Chords: Am-Dm-A#-Am

 D|--5--5--6--5--|
 A|--5--6--6--5--|
 F|--5--7--7--5--|
 C|--7--7--8--7--| x6
 G|--7--5--8--7--|
 D|--5--x--6--5--|

 Tabs :

 D|-----5-----------|
 A|--5-----8--6--5--|
 F|-----------------|
 C|-----------------| x6
 G|-----------------|
 D|-----------------|



Tabs by StupidMartin
Tap to rate this tab
# A B C D E F G H I J K L M N O P Q R S T U V W X Y Z