Song name
# A B C D E F G H I J K L M N O P Q R S T U V W X Y Z

Woods Of Ypres - Kiss My Ashes Goodbye Part Ii tab

FullHorizon helped me get this started but i'm gonna help him finish it

Standard C/C# tuning
Woods Of Ypres
Kiss My Ashes Goodbye Part II/ Woods 5:GREY SKIES AND ELECTRIC LIGHT

Very first tab.



C#--------------------------------------------------------------------------|
G#--------------------------------------------------------------------------|
E---------------------------------------------------------------------------|
B-----6--6----6-----------------9--9----9----4---1---2----------------------|
F#--4--4----4------4--4----4---7--7----7----2---2---2-----------------------|
C#----------------2--2----2-------------------------------------------------|



C#--------------------------------------------------------------------------|
G#--------------------------------------------------------------------------|
E---------------------------------------------------------------------------|
B------6--6----6-------------------------------4---4----4-------------------|
F#--4--4----4------4--4----4----2---2----2----2---2----2--------------------|
C#----------------2--2----2----0---0----0-----------------------------------|



C#--------------------------------------------------------------------------|
G#--------------------------------------------------------------------------|
E---------------------------------------------------------------------------|
B----6----6--4--6--------------------9---9-7-9------------------------------|
F#---------------4---4-2-2/4-4------------------7--9--6---------------------|
C#-------------------------------------------------------7--7---------------|


C#--------------------------------------------------------------------------|
G#--------------------------------------------------------------------------|
E---------------------------------------------------------------------------|
B----6----6--4--6----------------------------/2--1--------------------------|
F#---------------4---4-2-2/4-4---/4--2--------------------------------------|
C#--------------------------------------------------------------------------|




C#--------------------------------------------------------------------------|
G#--------------------------------------------------------------------------|
E --------------------------------------------------------------------------|
B --2-----------------------------------------------------------------------|
F#--2(60x)------------------------------------------------------------------|
C#--0-----------------------------------------------------------------------|
    . palm mute
curse all those who were so vein...... who felt entitled to hold a place on the earth as 
a grave for their remains

C#--------------------------------------------------------------------------|
G#--------------------------------------------------------------------------|
E --------------------------------------------------------------------------|
B --------------------------------------------------------------------------|
F#--------------------------------------------------------------------------|
C#--------------------------------------------------------------------------|

but no monument for me,.. please i am not one of them i didn't need it in life i won't 
need it in death


i am still editing it just a start... have school and all that but don't worry i got the 
solo and a few other things to do... and that will be it... don't rate or comment yet, 
i still have to give my acknowledgments and all that...
Tap to rate this tab
# A B C D E F G H I J K L M N O P Q R S T U V W X Y Z