Song name
# A B C D E F G H I J K L M N O P Q R S T U V W X Y Z

Woods Of Ypres - Northern Cold tab

Help us improve GuitareTab! Take a short survey!
Band: Woods of Ypres
Album: Woods 3
Tuning: EADGBe

     E  E  E  E  E  E  E  E     E  E  E  E  E  E  E  E   
e||--------------------------|--------------------------|
B||-----------3-----3--------|-----------3-----3--------|
G||--------4-----4-----4-----|--------4-----4-----4-----|
D||-----4-----------------4--|-----4-----------------4--|
A||--2-----------------------|--2-----------------------|
E||--------------------------|--------------------------|


                                                    
     E  E  E  E  E  E  E  E     E  E  E  E  E  E  E  E   
e||--------------------------|--------------2-----------|
B||-----------3-----3--------|-----------3-----3--------|
G||--------4-----4-----4-----|--------4-----------4-----|
D||-----4-----------------4--|-----4-----------------4--|
A||--------------------------|--0-----------------------|
E||--3-----------------------|--------------------------|

     E  E  E  E  E  E  E  E     E  E  E  E  E  E  E  E   
e||--------------------------|--------------------------|
B||-----------3-----3--------|-----------3-----3--------|
G||--------4-----4-----4-----|--------4-----4-----4-----|
D||-----4-----------------4--|-----4-----------------4--|
A||--2-----------------------|--2-----------------------|
E||--------------------------|--------------------------|


                                                    
     E  E  E  E  E  E  E  E     E  E  E  E  E  E  E  E   
e||--------------------------|--------------2-----------|
B||-----------3-----3--------|-----------3-----3--------|
G||--------4-----4-----4-----|--------4-----------4-----|
D||-----4-----------------4--|-----4-----------------4--|
A||--------------------------|--0-----------------------|
E||--3-----------------------|--------------------------|

Related for Northern Cold tab