Song name
# A B C D E F G H I J K L M N O P Q R S T U V W X Y Z

Woods - Night Creature tab

Help us improve GuitareTab! Take a short survey!
-------------------------------------------------------------------------------
			     Night Creature - Woods
-------------------------------------------------------------------------------
Tabbed by: Adam Goodwin

Tuning: Standard EADGBe

Woods are an amazing lo-fi group comprised of most members of meneguar. If you 
haven't already heard them I suggest you do!

http://www.fuckittapes.com/woods.htm
http://www.myspace.com/woodsfamilyband


Verse

e|--------------------------|
B|--------------------------|
G|--------------------------|
D|-5-5----------------------|
A|-7-7--5-5--7-7--5-5-------|
E|-0-0--7-7--8-8--7-7-------| Repeat as necessary

Chorus

e|---------------------------------------------|
B|---------------------------------------------|
G|---------------------------------------------|
D|-5-5-----------------------------------------|
A|-7-7--5-5--7-7--5-5--3-3--2-2--3-3--5-5------|
E|-0-0--7-7--8-8--7-7--5-5--3-3--5-5--7-7------| X2


Ending

e|-0--|
B|-0--|
G|-0--|
D|-5--|
A|-7--|
E|-0--| The ending is just picking certain parts and strumming of this chord, just improvise.
Related for Night Creature tab