Song name
# A B C D E F G H I J K L M N O P Q R S T U V W X Y Z

Woody Guthrie - This Land Is Your Land tab

Song:This Land Is Your Land
Artist:Woody Guthrie
Tabbed By:sixstringhippie

Key of G

MELODY:

E--------------------------------------------------------------------|
B------0-1-1---1------0-0-------0-----------------0-0----------0-1-1-|
G--0-2-----------0-2----------0----2-2---2-2-0-2--------0-0-2--------|
D---------------------------0----------------------------------------|
A--------------------------------------------------------------------|
E--------------------------------------------------------------------|

E-------------------------------------|
B--1-1-------0-0----------------------|
G-------0-2---------2-2-2---------2-0-|
D--------------------------4-0-4------|
A-------------------------------------|
E-------------------------------------|

you play every verse and chorus the same


CHORUS:
             C                      G
this land is your land this land is my land
         D                       G
from california to the new york island
                 C                          G
from the redwood forests to the gulf stream waters
D                              G
this land was made for you and me

VERSE:
          C                      G
as I went walking that ribbon of highway
       D                     G
I saw above me that endless skyway
         C                  G
I saw below me that golden valley
D                             G
this land was made for you and me


I've roamed and rambled and I followed my footsteps
to the sparkling sands of her diamond deserts
and all around me a voice was sounding
this land was made for you and me


when the sun came shining and I was walking
and the wheat fields waving and the dust clouds rolling
as the fog was lifting a voice was chanting
this land was made for you and me


as I went walking I saw a sign there
and on the sign it said "No Trespassing"
but on the other side it didn't say nothing
that side was made for you and me


in the squares of the city in the shadow of the steeple
by the relief office I seen my people
as they stood there hungry I stood there asking
is this land made for you and me?

nobody living can ever stop me
as I go walking that freedom highway
nobody living can ever make me turn back
this land was made for you and me
Tap to rate this tab
 
# A B C D E F G H I J K L M N O P Q R S T U V W X Y Z