Song name
# A B C D E F G H I J K L M N O P Q R S T U V W X Y Z

Woody Guthrie - This Land Is Your Land tab

Standard Tuning - No Capo
           C                    G
      x 3 2 0 1 0          3 2 0 0 0 3       Q = Crochet or Quater Note 

                                             E = Quaver or Eighth Note
                                           
 4/4
                 C                           G
  Q  Q  Q  Q    Q  Q  Q  Q    Q  Q  Q  Q    Q  Q  Q  Q
e|-------------|-0--0--0-----|-------------|-3--3--3------|
B|-------------|-1--1--1-----|-------------|-0--0--0------|
G|-------------|-0--0--0-----|-------------|-0--0--0------|
D|-------------|-2--2--2-----|-------------|-0--0--0------|
A|-0--2--3-----|-3--3--3-----|-3--2--------|-2--2--2------|
E|-------------|-0--0--0-----|-------3-----|-3--3--3------|


   D                       G
  Q  Q  Q  Q    E E Q  Q  Q    Q  Q  Q  Q
e|-2--2--2-----|-----------3--|-3--3--3------||
B|-3--3--3-----|-----------0--|-0--0--0-----o||
G|-2--2--2-----|-----------0--|-0--0--0------||
D|-0--0--0--0--|-0h2-0-----0--|-0--0--0------||
A|-------------|-----------2--|-2--2--2-----o||
E|-------------|--------3--3--|-3--3--3------||

Repeat all through the song. 

Made by Connor

Check out my youtube channel at 

http://www.youtube.com/channel/UCGHTlMgHkQF7bOO7hLqDTIQ/videos
Tap to rate this tab
# A B C D E F G H I J K L M N O P Q R S T U V W X Y Z