Song name
# A B C D E F G H I J K L M N O P Q R S T U V W X Y Z

Woody Guthrie - Dust Bowl Refugee tab

This is my attempt at a tab for Woody Guthrie's song "Dust Bowl Refugees" as
played on disc 3 of the library of congress recordings. (Key of C, no capo,
standard tuning.)  This is my first tab so please post some
comments/suggestions.

Intro/Between Verses Melody (Chord names above refer to the chord you should be 
holding/strumming while playing the melody):


           C       C       C      C
e  --------------------------------|
B  --------------------------------|
G  -0------------------------------|
D  ---3-2-------------0h2----------|
A  ------------3--------------3----|
E  --------------------------------|

           C       C       C      G
e  --------------------------------|
B  --------------------------------|
G  -0------------------------------|
D  ---3-2-------------0h2----------|
A  ------------3-------------------|
E  ----------------------------3---|

           C       C          C      C
e  ------------------------------------|
B  ------------------------------------|
G  -0-----------------0----------------|
D  ---3-2---------------3-2------------|
A  ------------3-----------------3-----|
E  ------------------------------------|


           C       G         C
e  ---------------------------|
B  ---------------------------|
G  -----2-------------0-------|
D  ---3-----------------2-3---|
A  -3-------------------------|
E  ------------3--------------|

For the verses he seems to only use the C and G chords with his usual alternating bass 
and some hammer ons.

C                    C
I'm a dust bowl refugee,
C                    G
Just a dust bowl refugee,
C                   C
From that dust bowl to the peach bowl,
C               G                 C
Now that peach fuzz is a-killin' me.

'Cross the mountains to the sea,
Come the wife and kids and me.
It's a hot old dusty highway
For a dust bowl refugee.

Hard, it's always been that way,
Here today and on our way
Down that mountain, 'cross the desert,
Just a dust bowl refugee.

We are ramblers, so they say,
We are only here today,
Then we travel with the seasons,
We're the dust bowl refugees.

From the south land and the drought land,
Come the wife and kids and me,
And this old world is a hard world
For a dust bowl refugee.

Yes, we ramble and we roam
And the highway that's our home,
It's a never-ending highway
For a dust bowl refugee.

Yes, we wander and we work
In your crops and in your fruit,
Like the whirlwinds on the desert
That's the dust bowl refugees.

I'm a dust bowl refugee,
I'm a dust bowl refugee,
And I wonder will I always
Be a dust bowl refugee?
Tap to rate this tab
# A B C D E F G H I J K L M N O P Q R S T U V W X Y Z