Song name
# A B C D E F G H I J K L M N O P Q R S T U V W X Y Z

Woody Guthrie - Whos Gonna Shoe Your Pretty Little Feet tab

------------------------------------------------------------------------------- 
        Who's Gonna Shoe Your Pretty Little Feet  - Woody Guthrie
-------------------------------------------------------------------------------


This is my attempt at a tab for Who's Gonna Shoe Your Pretty Little Feet, by
Woody Guthrie, as is played on volume 2 of the Asch recordings. I always 
liked this song - there are some really nice harmonies with Cisco.  The song
is in a Waltz timing. I placed the chords over the words I heard the root. 
For the intro, the chords indicate the chord you shape you play the melody 
notes out of and the chord you strum between the melody notes (listen to the
song for the exact timing).



Intro/break:

     C                                    F         C         F          C         G       C
e  -------------------------------------------------------------------------------------------|
B  -------------------------------------------------------------------------------------------|
G  -------------------------0-----------------------------------------------------------------|
D  ---0h2-----0h2-0h2---0h2---0h2---0-2-3---3-2-0-------0-2-3---3-2-0---0h2-------------------|
A  -------------------------------3---------------3---3---------------3-----3-2-0------0-2-3--|
E  -------------------------------------------------------------------------------3--3--------|

Verse:

    C          C         C          C
e|-----0--0-------0--0------0--0-------0--0---|
B|-----1--1-------1--1------1--1-------1--1---|
G|-----0--0-------0--0------0--0-------0--0---|
D|-----2--2-------2--2------2--2-------2--2---|
A|--3--3--3----3--3--3---3--3--3----3--3--3---|
E|--------------------------------------------|

    F          F         C          C
e|-----1--1-------1--1------0--0-------0--0---|
B|-----1--1-------1--1------1--1-------1--1---|
G|-----2--2-------2--1------0--0-------0--0---|
D|--3--3--3----3--3--3------2--2-------2--2---|
A|-----------------------3--3--3----3--3--3---|
E|--------------------------------------------|

    F          F         C          C
e|-----1--1-------1--1------0--0-------0--0---|
B|-----1--1-------1--1------1--1-------1--1---|
G|-----2--2-------2--1------0--0-------0--0---|
D|--3--3--3----3--3--3------2--2-------2--2---|
A|-----------------------3--3--3----3--3--3---|
E|--------------------------------------------|

    G          G         C          C
e|-----1--1-------1--1------0--0-------0--0---|
B|-----0--0-------0--0------1--1-------1--1---|
G|-----0--0-------0--0------0--0-------0--0---|
D|-----0--0-------0--0------2--2-------2--2---|
A|-----2--3-------2--2---3--3--3----3--3--3---|
E|--3--3--3----3--3--3------------------------|


C             C         C             C
Who's gonna shoe your pretty little feet?
F             F          C        C
Who's gonna glove your hand?
F             F        c          C
Who's gonna kiss your red ruby lips?
G           G         C           C
Who's gonna be your man?

Papa's gonna shoe my pretty little feet,
Mama's gonna glove my hand,
Sister's gonna kiss my red ruby lips,
I don't need no man.

I don't need no man,
I don't need no man,
Sister's gonna kiss my red ruby lips,
I don't need no man.

The fastest train I ever did ride,
Was a hundred coaches long,
And the only woman I ever did love,
Was on that train and gone.

On that train and gone, boys,
On that train and gone,
The only woman I ever did love,
On that train and gone.

Who's gonna shoe your pretty little feet?
Who's gonna glove your hand?
Who's gonna kiss your red ruby lips?
Who's gonna be your man?

Papa's gonna shoe my pretty little feetl,
Mama's gonna glove my hand,
Sister's gonna kiss my red ruby lips,
I don't need no man.

I don't need no man,
I don't need no man,
Sister's gonna kiss my red ruby lips,
I don't need no man. 




************************************

| /   slide up
| \   slide down
| h   hammer-on
| p   pull-off
| ~   vibrato
| +   harmonic
| x   Mute note
| b   Bend
| pb  Pre-bend
| br  Bend release
| pbr Pre-bend release
| brb Bend release bend

************************************
Tap to rate this tab
# A B C D E F G H I J K L M N O P Q R S T U V W X Y Z