Song name
# A B C D E F G H I J K L M N O P Q R S T U V W X Y Z

Woolworths - The Fresh Food People tab

***PLEASE NOTE THAT THIS IS A UKULELE TAB***

Hard work and listening on YouTube was put into this tab, and it's my first one for 
as well.

_______________________________________________
Here are the notes for guitarists:

Main Rhythm - repeat over and over again
|C,G,C,A,C,G,G,A,G,A | D,G,D,A,D,G,G,A,G,E|

Theme Line - play once at the end of the tune
|G,G,G,B,A,A,F#|
_______________________________________________

For Ukulele players:

Main Rhythm: repeat over and over again

A|------------0-------------0-------0|-----------0-----------0------|
E|----3--------------3---3------3----|-----3----------3---3----3--0-|
C|-0------0------0-------------------|--2-----2-----2---------------|
G|-----------------------------------|------------------------------|

Theme Line: play once at the end of the tune

A|--------------2----0---0------|
E|--3--3----3---------------2---|
C|------------------------------|
G|------------------------------|

Woolworths website: http://www.woolworths.com.au/wps/wcm/connect/webSite/Woolworths/
Tap to rate this tab
 
# A B C D E F G H I J K L M N O P Q R S T U V W X Y Z