Song name
# A B C D E F G H I J K L M N O P Q R S T U V W X Y Z

Workin On Fire - Sun Path tab

Sun Path by Workin' On Fire
Composed by Austin Williamson

TUNING: Standard
TIME SIG: 4/4
BPM: ~122

Guitar tabs:

INTRO
|-------------------------------------------------------------------|
|-(12)+---(7)+-(5)+--(7)+--(12)+---(7)+--(5)+--(7)+-----------------|
|-(12)+---(7)+-(5)+--(7)+--(12)+---(7)+--(5)+--(7)+-----------------|
|-(12)+---(7)+-(5)+--(7)+--(12)+---(7)+--(5)+--(7)+-----------------|
|-------------------------------------------------------------------|
|-------------------------------------------------------------------|

|------------------------(0)--------------------------------------|
|-(12)+---(7)+-(5)+--(7)+--(2)------------------------------------|
|-(12)+---(7)+-(5)+--(7)+--(0)------------------------------------|
|-(12)+---(7)+-(5)+--(7)+--(2)------------------------------------|
|------------------------(3)--------------------------------------|
|------------------------(3)--------------------------------------|

|-------------------------------------------------------------------|
|-(12)+---(7)+-(5)+--(7)+--(12)+---(7)+--(5)+-(7)+-(7)+/------------|
|-(12)+---(7)+-(5)+--(7)+--(12)+---(7)+--(5)+-(7)+-(7)+/------------|
|-(12)+---(7)+-(5)+--(7)+--(12)+---(7)+--(5)+-(7)+-(7)+/------------|
|-------------------------------------------------------------------|
|-------------------------------------------------------------------|

VERSE
|--------------------|---------------------|----------------------|
|-0-----0-------3p0--|-0-----0-------3p0--|-----------------------|
|----3------0-----0h3|----3------0-----0h3|-5-----5-----5---------|
|--------------------|---------------------|----0-----0-----------|
|--------------------|---------------------|----------------------|
|-3-3-3-3-3-3-3-3-3-|-3-3-3-3-3-3-3-3-3--|-5-3-3-3-3-3-3-3-3------|

|-----------------------|
|-----------------------|
|-5-----5-----5---------|
|----0-----0------------|  (x4)
|-----------------------|
|-5-3-3-3-3-3-3-3-3-----|

CHORUS 1

|------------------------------|
|------------------------------|
|-(7)----(5)----(4)----(2)-----|
|-(0)----(0)----(0)----(0)-----|
|------------------------------|
|-(7)\---(5)\---(3)\---(2)-----|

VERSE 2
|--------------------|---------------------|----------------------|
|-0-----0-------3p0--|-0-----0-------3p0--|-----------------------|
|----3------0-----0h3|----3------0-----0h3|-5-----5-----5---------|
|--------------------|---------------------|----0-----0-----------|
|--------------------|---------------------|----------------------|
|-3-3-3-3-3-3-3-3-3-|-3-3-3-3-3-3-3-3-3--|-5-3-3-3-3-3-3-3-3------|

|-----------------------|
|-----------------------|
|-5-----5-----5---------|
|----0-----0------------|  (x4)
|-----------------------|
|-5-3-3-3-3-3-3-3-3-----|

CHORUS 2

|-----------------------|-----------------|
|-----------------------|-----------------|
|-(7)----(5)----(4)----(2)-|-(2)----------|
|-(0)----(0)----(0)----(0)-|-(0)----------|
|-----------------------|-----------------|
|-(7)\---(5)\---(3)\---(2)-|-(2)----------|

...find a place that hurrrrtttttsss
...ooooo...oooo..oooo
|--------------------|---------------------|----------------------|
|-0-----0-------3p0--|-0-----0-------3p0--|-----------------------|
|----3------0-----0h3|----3------0-----0h3|-5-----5-----5---------|
|--------------------|---------------------|----0-----0-----------|
|--------------------|---------------------|----------------------|
|-3-3-3-3-3-3-3-3-3-|-3-3-3-3-3-3-3-3-3--|-5-3-3-3-3-3-3-3-3------|

|-----------------------|
|-----------------------|
|-5-----5-----5---------|
|----0-----0------------|  (x4)
|-----------------------|
|-5-3-3-3-3-3-3-3-3-----|

CHORUS 3 (End)

|------------------------------|
|------------------------------|
|-(7)----(5)----(4)----(2)-----|
|-(0)----(0)----(0)----(0)-----|
|------------------------------|
|-(7)\---(5)\---(3)\---(2)-----|

|-----------------------|--------------------|
|-----------------------|---------(3)--------|
|-(7)----(5)----(4)----(2)-|-(2)------(0)----|
|-(0)----(0)----(0)----(0)-|-(0)------(0)----|
|-----------------------|--------------------|
|-(7)\---(5)\---(3)\---(2)-|-(2)------(3)----|

| /  slide up
| h  hammer-on
| p  pull-off
| ~  vibrato
| +  harmonic
Tap to rate this tab
 
# A B C D E F G H I J K L M N O P Q R S T U V W X Y Z