Song name
# A B C D E F G H I J K L M N O P Q R S T U V W X Y Z

Working For A Nuclear Free City - Asleep At The Wheel tab

-----------------------------------------------------------------------------
	   ASLEEP AT THE WHEEL - Working for a Nuclear Free City
-----------------------------------------------------------------------------
Tabbed by:thomasthetomtom


first guitar riff
e|------------------|------------------|------------------|
B|----------8-------|----------8-------|----------8-------|
G|----4-5-4---4-5-4-|----4-5-4---4-5-4-|----4-5-4---4-5-4-|
D|--5---------------|--5---------------|--5---------------|
A|------------------|------------------|------------------|
E|------------------|------------------|------------------|

---------------------|
---------------------|
----4-5-4-7-4-5-4----|
--7------------------|
---------------------|
---------------------| repeat forever



http://www.last.fm/music/Working+for+a+Nuclear+Free+City


second one
this comes in a after a few of the things above
e|----------------------|----------------------------------|
B|----------------------|----------------------------------|
G|--5/7~~~~~ 0~~~~~~- --|--4h5h7 4-5--4-5--4-5-4-5-4-5-4---|
D|----------------------|----------------------------------|
A|----------------------|----------------------------------|
E|----------------------|----------------------------------| repeat a while
	this parts tricky to pick out. its something like this

this songs is good
Tap to rate this tab
 
# A B C D E F G H I J K L M N O P Q R S T U V W X Y Z