Song name
# A B C D E F G H I J K L M N O P Q R S T U V W X Y Z

Working For A Nuclear Free City - Silent Melody tab

------------------------------------------------------------------------
SILENT MELODY (INFAMOUS CREDIT MUSIC) - Working for a Nuclear Free City
------------------------------------------------------------------------
Tabbed by: cthordids

Tuning: Standard

This covers most of the song. Sounds a lot better on electric guitar.

Riff played throughout the whole song - Medium-high distortion
e|---------------------------------------------------------------------|
B|---------------------------------------------------------------------|
G|---------------------------------------------------------------------|
D|-5----------------7----------------3----------------5----------------|
A|-5----------------7----------------3----------------5----------------|
E|-3----------------5----------------1----------------3----------------|

Electric riff - High distortion
e|-3~~~~~~~~~~------3~~~~~~~~~~------3h6~~~~~~~~~~~~~~6-3~~~~~~--------|
B|---------------------------------------------------------------------|
G|---------------------------------------------------------------------|
D|---------------------------------------------------------------------|
A|---------------------------------------------------------------------|
E|---------------------------------------------------------------------|

Verse can be played on guitar - No distortion
      If  ev - er   we   drop        Re -mem -ber  we   lost
e|---------------------------------------------------------------------|
B|---------------------------------------------------------------------|
G|---------------------------------------------------------------------|
D|----5---3----7----3----5-----------5---3----7----3----5--------------|
A|---------------------------------------------------------------------|
E|---------------------------------------------------------------------|

Chorus can be played on guitar - Distortion optional
                                                                 A sil
                                                                    -ent
e|---------------------------------------------------------------------|
B|---------------------------------------------------------------------|
G|---------------------------------------------------------------------|
D|---------------------------------------------------------------5-5-5-|
A|---------------------------------------------------------------------|
E|---------------------------------------------------------------------|

   melo -dy   A sur memor-y    A sound    -y    Became   of me
                 -face               symphon        a part
e|---------------------------------------------------------------------|
B|---------------------------------------------------------------------|
G|---------------------------------------------------------------------|
D|-8--8--8----5-5-5-8--8--8----5-5---8--8--8----5-5-5-8--8--8----------|
A|---------------------------------------------------------------------|
E|---------------------------------------------------------------------|


************************************

| h   hammer-on
| ~   vibrato

************************************
Tap to rate this tab
 
# A B C D E F G H I J K L M N O P Q R S T U V W X Y Z