Song name
# A B C D E F G H I J K L M N O P Q R S T U V W X Y Z

World In Roachclips - Protege tab

Help us improve GuitareTab! Take a short survey!
 Introduction (Guitarz 1 & 2)
E|-----------------------------------------|
B|-----------------------------------------|
G|-----------------------2/6===------------|
D|-----------------------2/4p0-------------|
A|---4-5-----------2s5p0--------0h5\2/3-4\-|
D|-2-----2p0-2p0-4----------------------4\-|

 Riff A (Guitar 1)
E|---------------------------------|
B|------------------6--7-----------|
G|------------------6--7-----------|
D|-------------1----6--7-----------|
A|-2----------21----4-45-7\5-2-----|
D|-2-00-5s8r-321-00------7\5-2-----|

 Backing Fill-in Solo (played by Guitar 2 during Riff A)
E|--------------------------------------------|
B|-------------------------12===========------|
G|------------------------/12p10h11p10p0------|
D|--------14\---------12\---------------------|
A|-2s10p9-15\-4s12p11-13\---------------------|
D|--------------------------------------------|
Related for Protege tab