Song name
# A B C D E F G H I J K L M N O P Q R S T U V W X Y Z

World Under Blood - God Among The Waste tab

Intro/main riff
--------------------------------------------------------------------------|
--------------------------------------------------------------------------|
--------------------------------------------------------------------------|
9---------------------------------------12----9---------------------------|
------12------10---10-----9--------------------------12----10-----9-------|
--8-8-----8-8----8----8-8----8-8-12-10-----0-0---0-0----0-----0-0---0-0-10|


Verse:

-----------------------------------------|
-----------------------------------------|
-----------------12-12-12-------11-11-11-|
-----------999--------------999----------|
77777777---------------------------------|
-----------------------------------------|

-------------------------------------|
-------------------------------------|
-------------------------------------|
-777---999-------------5/7-----------|
-------------55555555-------33333333-|
-------------------------------------|

Chorus:

--------------------------------------|
--------------------------------------|
--------------------------------------|
--7----4------------------------------|
------------7----5--------4----5------|
7---7----7----7-----2-5-2---2----2-5--|

----------------------------------------------|
----------------------------------------------|
----------------------------------------------|
----------------------------------------------|
---2-----4-----5----2-----2-----------5----4--|
3----3-----3-----3-----3----3--5----7----7--5-|

Breakdown:

------------------------------------------------------------------|
------------------------------------------------------------------|
------------------------------------------------------------------|
----66-55-----55-44-----66--------66-55------55-44-----44---------|
------------------------------------------------------------------|
44---------33---------55------44---------33---------22---00000000-|
Tap to rate this tab
# A B C D E F G H I J K L M N O P Q R S T U V W X Y Z