Song name
# A B C D E F G H I J K L M N O P Q R S T U V W X Y Z

World Under Blood - Under The Autumn Low tab

INTRO:
|---------------------------------------------------------|
|---------------------------------------------------------|
|----------------------------44---------------------------|
|-------------4444--55--77-------------------------44--55-|
|----------------------------------------5555--77---------|
|333333--------------------------333333-------------------|

|----------------------------------------------------------------------|
|-------------------------------------------88-------------------------|
|------------------------------77--------77----------------------------|
|----------99--7777----------------9999-------99--77-------------------|
|-----77-----------------10-10-----------------------10-10---99--10-10-|
|00--------------------------------------------------------------------|


VERSE:
|--------------------------------------------------|
|--------------------------------------------------|
|--------------------------------------------------|
|5--------5/7-------5------5----------5/7----5-----|
|--------------------------------------------------|
|--333333------33------33-----333333------33----33-|

|-------------------------------------------------------------------------|
|-------------------------------------------------------------------------|
|-------------------------------4-----2-----------------------2/4---------|
|5/4--2---------5/7------5-------------------5--------4------------5------|
|----------------------------------------------------------5--------------|
|---------00000------00-----00----00-----00------00------------------3333-|


CHORUS:
|--------------------------------=--------------------------------------|
|-----------------------------------------------------------------------|
|--------------------------------------------------77---------11-11--99-|
|------------99--77----------------77---------99--------99--------------|
|----------------------10-10--99----------------------------------------|
|000000--------------------------------777777---------------------------|
Tap to rate this tab
# A B C D E F G H I J K L M N O P Q R S T U V W X Y Z