Song name
# A B C D E F G H I J K L M N O P Q R S T U V W X Y Z

Wormrot - Lost Swines tab

-------------------------------------------------------------------------------
                              LOST SWINES - Wormrot
                              From the album ABUSE
-------------------------------------------------------------------------------


Tabbed by: Vil Blackrose

Tuning: Drop C (Drop D, one step lower)

D|-----------------------------------------|
A|-----------------------------------------|
F|-----------------------------------------|
C|-6-5-3-5-0~-0~-----6-5-3-5-1~--X-3~------|  X2
G|-6-5-3-5-0~-0~-----6-5-3-5-1~--X-3~------|
C|-6-5-3-5-0~-0~-----6-5-3-5-1~--X-3~------|

D|---------------------------------------------------------------|
A|---------------------------------------------------------------|
F|---------------------------------------------------------------|
C|-6-5-3-5-------------------------------------------------------|
G|-6-5-3-5-------------------------------------------------------|
C|-6-5-3-5-0000000000000000--1111111111111111--3333333333333333--|
           ................  ................  ................

D|----------------------------------------------------------------|
A|----------------------------------------------------------------|
F|----------------------------------------------------------------|
C|----------------------------------------------------------------|
G|----------------------------------------------------------------|
C|-0000000000000000--1111111111111111--3333333333333333-----------|
   ................  ................  ................

D|-----------------------------------------|
A|-----------------------------------------|
F|-----------------------------------------|
C|-6-5-3-5-0~-0~-----6-5-3-5-1~--X-3~------|  X2
G|-6-5-3-5-0~-0~-----6-5-3-5-1~--X-3~------|
C|-6-5-3-5-0~-0~-----6-5-3-5-1~--X-3~------|

D|-------------------------|
A|-------------------------|
F|-------------------------|
C|-6-5-3-5-0-0-1-3-0-0-1-3-|
G|-6-5-3-5-0-0-1-3-0-0-1-3-|
C|-6-5-3-5-0-0-1-3-0-0-1-3-|
           . . . . . . . .

D|-----------------------------|
A|-----------------------------|
F|-----------------------------|
C|-65350~-65350~-65350~-65350~-|  X2 
G|-65350~-65350~-65350~-65350~-|
C|-65350~-65350~-65350~-65350~-|


D|---------------------------|
A|---------------------------|
F|---------------------------| X4
C|-6-5-3-5-6-5-3-5-6-5-3-5-0-|
G|-6-5-3-5-6-5-3-5-6-5-3-5-0-|
C|-6-5-3-5-6-5-3-5-6-5-3-5-0-|

D|-----------------------|
A|-----------------------|
F|-----------------------|
C|-3-0-1-0-3-0-1-0-3-1-0-|
G|-3-0-1-0-3-0-1-0-3-1-0-|
C|-3-0-1-0-3-0-1-0-3-1-0-|
   . . . . . . . . . .   

Enjoy!
Tap to rate this tab
# A B C D E F G H I J K L M N O P Q R S T U V W X Y Z