Song name
# A B C D E F G H I J K L M N O P Q R S T U V W X Y Z

Worth Dying For - Spirit Of God tab

Spirit of God - Worth Dying For
Key: C
Standard Tuning

Chords:
    Am  E/G#  G   D/F#  F   Dm    Em   C    B
e|-------------------------------------------|
b|---------------------------6----8----5-----|
g|--5----4----4----2----2----7----9----5----8|
d|--7----6----5----4----3----7----9----5----9|
a|--7----7----5----5----3----5----7----3----9|
e|--5----4----3----2----1-------------------7|


Intro:
Am E/G# G D/F# F G Am Dm Em

Verse:
Am  E/G#  G  D/F# 
Holy is our God
F
Send Your rain
G
Flood this place
Am                  Dm      Em
Let Your power fall on us

Chorus:
Am                           F
Spirit of God won't You fall down like rain
C                        Em
Awaken our hearts, I'm running to You

Guitar riff (Listen to song if unsure about picking and timing)
e|-----------------|-----------------|-----------------|-----------------|-----------------|
b|-----------------|-----------------|-----------------|-----------------|-----------------|
g|-5-5-5-5-5-5-5-5-|-5-5-5-5-7-7-7-7-|-4-4-4-4-4-4-4-4-|-4-4-4-4-4-4--1/4|-4-4-4-4-4-4-4-4-|
d|-----------------|-----------------|-----------------|-----------------|-----------------|
a|-----------------|-----------------|-----------------|-----------------|-----------------|
e|-----------------|-----------------|-----------------|-----------------|-----------------|
   1 + 2 + 3 + 4 +   1 + 2 + 3 + 4 +   1 + 2 + 3 + 4 +   1 + 2 + 3 + 4 +   1 + 2 + 3 + 4 +

e|-------------------|-----------------|-----------------|
b|-------------------|----------5-5-5-5|---5--5--5--5--5-|
g|-(4-4-4-4)-4-4-4-4-|-2-2-2-2-2-2-2-2-|-22-22-22-22-22--|
d|-------------------|-----------------|-----------------|
a|-------------------|-----------------|-----------------|
e|-------------------|-----------------|-----------------|
   1 + 2 + 3 + 4 +     1 + 2 + 3 + 4 +   1 + 2 + 3 + 4 +

Verse
Chorus

Bridge:
Am
Let Your rain fall
B
Let Your wind blow
C                                B
Let Your Spirit come down, come down

Chorus
Bridge

Repeat as needed
Tap to rate this tab
# A B C D E F G H I J K L M N O P Q R S T U V W X Y Z