Wovenhand - Dirty Blue tab

Dirty Blue By Wovenhand Submitted By Jakeorahma
-----------------------------------------------

Intro
-----

e|--------------------------------| Repeat This Phrase 2 More
B|--------------------------------| Times (Play 3 Times In Total)
G|--------------------------------| And Then Move Onto Next Phrase
D|---2--2-----2--2--0--0--4-4p2p0-|
A|--------------------------------| 
E|--0--0--0h3--3--2--2--2---------|

e|-------------------------| You Then Play This Whole Part Once Again
B|-------------------------| After Which Is The First Verse
G|-------------------------|
D|---2--2--2--2--2--2--2--2|
A|-------------------------|
E|--0--0--0--0--3--3--3--3-|

p= Pull Off
h= Hammer On

Tap to rate this tab
 
# A B C D E F G H I J K L M N O P Q R S T U V W X Y Z