Song name
# A B C D E F G H I J K L M N O P Q R S T U V W X Y Z

Wovenhand - Dirty Blue tab

Song: Dirty Blue
Artist: Wovenhand
Album: Mosaic

------------------

Tab by Milan Mišic

------------------

Tunning: E B E G B E

KEY TO TAB : h: hammer-on
             p: pull-off
             b: bend
             r: release bend
             /: Slide up to

----------------------------

Main Riff - Intro:

-Part A:

E:---------------------------------------|
B:---------------------------------------|
G:---------------------------------------|
E:------------------------------2-2p0----| 
B:----5---5-----5---5---3---3---------3--|
E:--0---0---0h3---3---2---2---2----------|

-Part B:

E:---------------------------------------|
B:---------------------------------------|
G:---------------------------------------|
E:---------------------------------------|
B:----5---5---5---5---5---5---5---5------|
E:--0---0---0---0---3---3---3---3--------|

- 3XA, B



Verse:

Because David plays realy free, writing the exact notes of the
second guitar is meaningless, so I will write only the chords
he plays above the first guitar.


-Part A:

E:-0------------------0------------------|
B:-0------------------0------------------|
G:-0------------------0------------------|
E:-0------------------0------------------| Guitar 2
B:-5------------------3------------------|
E:-0------------------2------------------|

E:---------------------------------------|
B:---------------------------------------|
G:---------------------------------------|
E:------------------------------2-2p0----| Guitar 1
B:----5---5-----5---5---3---3---------3--|
E:--0---0---0h3---3---2---2---2----------|


-Part B:

E:---------------------------------------|
B:---------------------------------------|
G:---------------------------------------|
E:---------------------------------------| Guitar 2
B:----------------------------3-3-3------|
E:----------------------------2-2-2------|

E:---------------------------------------|
B:---------------------------------------|
G:---------------------------------------|
E:---------------------------------------| Guitar 1
B:----5---5---5---5---5---5---5---5------|
E:--0---0---0---0---3---3---3---3--------|

- 3XA, B

Then repeat only the second guitar once more



Chorus:

E:-----------------------------------------------------------0-0-0-0--0-0-0--0-0-0---------|
B:-----------------------------------------------------------0-0-0-0--0-0-0--0-0-0---------|
G:-----------------------------------------------------------0-0-0-0--0-0-0--0-0-0---------|
E:-10-10-10-10-10-10-10-10-10-10-10-10-10-10-10-10-----------0-0-0-0--0-0-0--0-0-0---------| X2
B:--------------------------------------------------3-3-3-3--0-0-0-0--0-0-0--0-0-0---------|
E:-10-10-10-10-10-10-10-10-10-10-10-10-10-10-10-10--2-2-2-2--0-0-0-0--0-0-0--0-0-0---------|

E:-----------------------------------------------------------0-0-0-0--0-0-0--0-0-0--0-0-0--|
B:-----------------------------------------------------------0-0-0-0--0-0-0--0-0-0--0-0-0--|
G:-----------------------------------------------------------0-0-0-0--0-0-0--0-0-0--0-0-0--|
E:-10-10-10-10-10-10-10-10-10-10-10-10-10-10-10-10-----------0-0-0-0--0-0-0--0-0-0--0-0-0--|  
B:--------------------------------------------------3-3-3-3--0-0-0-0--0-0-0--0-0-0--0-0-0--|
E:-10-10-10-10-10-10-10-10-10-10-10-10-10-10-10-10--2-2-2-2--0-0-0-0--0-0-0--0-0-0--0-0-0--|

E:-----------------------------------------------------------------------------------------|
B:-----------------------------------------------------------------------------------------|
G:-----------------------------------------------------------------------------------------|
E:-10-10-10-10-10-10-10-10-10-10-10-10-10-10-10-10-----------------------------------------|  
B:-----------------------------------------------------------------------------------------|
E:-10-10-10-10-10-10-10-10-10-10-10-10-10-10-10-10-----------------------------------------|



Main Riff Modification 1:

It's the same as main riff except part B


-Part B:

E:--------------------------------------|
B:--------------------------------------|
G:--------------------------------------|
E:--------------------------------------|
B:----5---5---5---5---5---5-----5---5---|
E:--0---0---0---3---0---0---0h3---3-----|



Verse - Second guitar only



Chorus



Part in between:

The second guitar is written the same way as it is in verse part


-Part A:

E:-------------------------------------------|
B:-------------------------------------------|
G:-------------------------------------------|
E:-12-12-12-12-12-12-12-12-12-12-12-12-------| Guitar 1
B:-------------------------------------------|
E:-12-12-12-12-12-12-12-12-12-12-12-12-------|

-Part B:

E:-------------------------------------------|
B:-12----------------------7-------5---------|
G:-------------------------------------------|
E:-12----------------------7-------5---------| Guitar 2
B:-------------------------------------------|
E:-12----------------------7-------5---------|

E:-------------------------------------------|
B:-------------------------------------------|
G:-------------------------------------------|
E:-12-12-12-12-12-12-12-12-7-7-7-7-5-5-5-5---| Guitar 1
B:-------------------------------------------|
E:-12-12-12-12-12-12-12-12-7-7-7-7-5-5-5-5---|

-Part C:

E:-------------------------------------------|
B:-------------------------------------------|
G:-------------------------------------------|
E:--5-5-5-5----------------------------------| Guitar 1
B:-------------------------------------------|
E:--5-5-5-5----------------------------------|

- A, 2XB, C



Main Riff Modification 2:

It's the same as main riff except part B


-Part B:

E:---------------------------------------|
B:---------------------------------------|
G:---------------------------------------|
E:---------------------------------------|
B:----5---5---5---5---5---5---5---5------|
E:--0---0---0---3---3---3---3---3--------|



Verse Modification:

E:---------------------------------------|
B:---------------------------------------|
G:---------------------------------------|
E:------------------------------2-2p0----| X2
B:----5---5-----5---5---3---3---------3--|
E:--0---0---0h3---3---2---2---2----------|

E:-0------------------0------------------|
B:-0------------------0------------------|
G:-0------------------0------------------|
E:-0------------------0------------------| X2
B:-5------------------3------------------|
E:-0------------------2------------------|



Chorus


http://wovenhandmosaic.com/
http://www.myspace.com/wovenhand
Tap to rate this tab
# A B C D E F G H I J K L M N O P Q R S T U V W X Y Z