Song name
# A B C D E F G H I J K L M N O P Q R S T U V W X Y Z

Wovenhand - Sparrow Falls tab

Help us improve GuitareTab! Take a short survey!
Sparrow Falls
Woven Hand
By Ben Chisnall

Intro

E-2--3^2---------2--3^2-----------[----|
B-3------3---3---3------3---3-----[----|
G-4--------4-----4--------4------o[----|
D-4------------4-4------------4--o[----|
A-2--------------2----------------[----|
E---------------------------------[----|

Verse:

Intro bit, then play 	2nd time:

E-0--2------------2---[-----------------------------------------------------|
B-0--3------------3---[-----------------------------------------------------|
G-2--4------------4---[-----------------------------------------------------|
D-2--4------------4---[-----------------------------------------------------|
A-0--2------------2---[-----------------------------------------------------|
E-------0--3-5-3------[--0--3-5-3-2--2-3--3-5-------------------------------|
        Em        Bm     Em      F#m   G    A7


E--------------------------------------------------------------------------|
B---0-----------------------8----------------------------------------------|
G---7-----------------------9----------------------------------------------|
D---7-----------------------9----------------------------------------------|
A---5-----------------------7----------------------------------------------|
E--------------------------------------------------------------------------|
  "I will you no grief      not to see you fall"

Then back to verse, putting in Ds during the Bm bit.

Final part:

D Bm E D

www.wovenhand.net
Related for Sparrow Falls tab