Wrath Of Killenstein - Igniisis Dance tab

Igniisis Dance ( From the Brutal Legend soundtrack)
By Wrath Of Killenstein
WWW.KILLENSTEIN.COM

INTRO:

In the part of hell where
little dead kids go...

E|-------------------------------------------------|
B|-------------------------------------------------|
G|-------------------------------------------------|
D|-------------------------------------------------|  
A|----------------------------------0----0----0----|
D|-0-0-0-0-0-0-0-0-0-0-0----0----0----0----0-------|

I could see Igniisis dance
Through the deep black hole.
                           Main riff
e|--------------------------------------------------------|
B|--------------------------------------------------------|
G|--------------------------------------------------------|
D|-----------------------6--7--9--10--10-9--9--7--6--7--7-|  
A|-----------------------4--5--7--8---8--7--7--5--4--5--5-|
D|-0-0-0-0-0-0-0-0-0-0-0----------------------------------|

Repeat 4 X

Verse

Beating on the drum of the
suicide clan
e|-------------------------------------------------------------|
B|-------------------------------------------------------------|
G|-------------------------------------------------------------|
D|-------------------------------------------------------------|  
A|--------0----0----0----6-7-9--10-10-9-9-7--6--7--7-----------|  
D|-0---0----0----0-------4-5-7--8--8--7-7-5--4--5--5--0-0-0-0--|


Bad kids jump in fire just as
fast as they can                                    time to burn
e|------------------------------------------------------------|
B|------------------------------------------------------------|
G|------------------------------------------------------------|
D|------------------------------------------------------------|  
A|--------0----0----0----6-7-9--10-10-9-9-7--6--7--7----------|  
D|-0---0----0----0-------4-5-7--8--8--7-7-5--4--5--5--0-0-0-0-|


                           
                             Sayonara 
e|---------------------------------------------------------------|
B|---------------------------------------------------------------|
G|---------------------------------------------------------------|
D|---------------------------------------------------------------|  
A|-6-7-9--10-10-9-7--6--7--7----------6-7-9--10-10-9-9-7--6--7--7|  
D|-4-5-7--8--8--7-5--4--5--5--0-0-0-0-4-5-7--8--8--7-7-5--4--5--5|


Down we go now . . . . . . . . . dance in the 

e|----------------------------------------------------------|
B|----------------------------------------------------------|
G|------------------------3---------------------------------|
D|----------------------------------------------------------|  
A|----------1---1-1--------------4---3---2------------------|  
D|-0-0-0-0--1---1-1-----------------------------------------|


  Flames 
e|----------------------------------------------------------|
B|----------------------------------------------------------|
G|-4--5---7--8---8--7---7--5--4--5--5-----------------------|
D|-4--5---7--8---8--7---7--5--4--5--5-----------------------|  
A|----------------------------------------------------------|  
D|-----------------------------------0-0-0-0----------------|
 Repeat 4X

Mid Break

e|------------------------------------------------------------|
B|------------------------------------------------------------|
G|-4-----4--3-----3--4----4--3--------------------------------|
D|-4-----4--3-----3--4----4--3--------------------------------|  
A|-2-----2--1-----1--2----2--1------------------0-----0-----0-|  
D|---------------------------------------0---0-----0-----0----|
                                         4X

Back into main riff & verse 



End riff

e|----------------------------------------------------------|
B|----------------------------------------------------------|
G|----------------------------------------------------------|
D|----------------------------------------------------------|  
A|-0--2--3--4--3--2--1--0--1--2--1--------------------------|  
D|-0--2--3--4--3--2--1--0--1--2--1--------------------------|

Tap to rate this tab
 
# A B C D E F G H I J K L M N O P Q R S T U V W X Y Z