Song name
# A B C D E F G H I J K L M N O P Q R S T U V W X Y Z

Wrath Of Killenstein - Igniisis Dance tab

Hello. My name is Jeff.
I know you're not stupid, you should be able to figure out the order.
And the palm muting is pretty self explanatory. Everytime you play without 
touching on the frets, its a palm mute.
                                                                                
Intro:
|-----------------------------------------|---------|
|-----------------------------------------|---------|
|-----------------------------------------|---------|
|----------7-----7-7-----7-7-----7-7------|---------|
|--0--x16--5-0-0-5-5-0-0-5-5-0-0-5-5-0-0-0|--0--x16-|
|--0-------0-0-0-0-0-0-0-0-0-0-0-0-0-0-0-0|--0------|

Main Riff 1:
|-----------------------------------|
|-----------------------------------|
|-----------------------------------|
|--7-7-9h10-10p9-9p7-6h7-7----------|
|--5-5-7h8---8p7-7p5-4h5-5--0-0-0-0-|
|---------------------------0-0-0-0-|

Fill: (In Between Main Riff 1 and Main Riff 2)
|-------------|
|-------------|
|-------------|
|--8---7-6-5--|
|--6---5-4-3--|
|-------------|

Main Riff 2:
|----------------------------------|
|----------------------------------|
|----------------------------------|
|--5-5-7h8-8p7-7p5-4h5-5-----------|
|--3-3-5h6-6p5-5p3-2h3-3--0-0-0-0--|
|-------------------------0-0-0-0--|

Bridge:
|--------------|
|--------------|
|--------------|
|--------------|
|--2--1--2--1--|
|--------------|

Outro: (Very short riff, at the very end. All palm muted)
|-------------------------|
|-------------------------|
|-------------------------|
|-------------------------|
|--0-1-3-4-3-1-0-1-3-4-0--|
|--0-1-3-4-3-1-0-1-3-4-0--|
Tap to rate this tab
 
# A B C D E F G H I J K L M N O P Q R S T U V W X Y Z