Song name
# A B C D E F G H I J K L M N O P Q R S T U V W X Y Z

Wreckless Eric - Whole Wide World tab

Ok here we go, nice and easy song, sounds good to
Tuning is Standard,

Good song for beginners to get chord transitions right (Between E and A anyway) and a 
song to sing along to...

Guitars at the ready... Good lets take this one off the back burner...

(Intro)
           E                A
E---0-0-0-0-0-0-0-0--0-0-0-0-0-0-0-0---------------------|
B---0-0-0-0-0-0-0-0--2-2-2-2-2-2-2-2---------------------|
G---1-1-1-1-1-1-1-1--2-2-2-2-2-2-2-2---------------------|
D---2-2-2-2-2-2-2-2--2-2-2-2-2-2-2-2---------------------|
A---2-2-2-2-2-2-2-2--0-0-0-0-0-0-0-0---------------------|
E---0-0-0-0-0-0-0-0--------------------------------------|
      Palm Mute        Palm Mute

           E                A
E---0-0-0-0-0-0-0-0--0-0-0-0-0-0-0-0---------------------|
B---0-0-0-0-0-0-0-0--2-2-2-2-2-2-2-2---------------------|
G---1-1-1-1-1-1-1-1--2-2-2-2-2-2-2-2---------------------|
D---2-2-2-2-2-2-2-2--2-2-2-2-2-2-2-2---------------------|
A---2-2-2-2-2-2-2-2--0-0-0-0-0-0-0-0---------------------|
E---0-0-0-0-0-0-0-0--------------------------------------|
      Palm Mute        Palm Mute

(Verse 1)
           E                A
E---0-0-0-0-0-0-0-0--0-0-0-0-0-0-0-0---------------------|
B---0-0-0-0-0-0-0-0--2-2-2-2-2-2-2-2---------------------|
G---1-1-1-1-1-1-1-1--2-2-2-2-2-2-2-2---------------------|
D---2-2-2-2-2-2-2-2--2-2-2-2-2-2-2-2---------------------|
A---2-2-2-2-2-2-2-2--0-0-0-0-0-0-0-0---------------------|
E---0-0-0-0-0-0-0-0--------------------------------------|

       When I Was A  Young Boy

           E                A
E---0-0-0-0-0-0-0-0--0-0-0-0-0-0-0-0---------------------|
B---0-0-0-0-0-0-0-0--2-2-2-2-2-2-2-2---------------------|
G---1-1-1-1-1-1-1-1--2-2-2-2-2-2-2-2---------------------|
D---2-2-2-2-2-2-2-2--2-2-2-2-2-2-2-2---------------------|
A---2-2-2-2-2-2-2-2--0-0-0-0-0-0-0-0---------------------|
E---0-0-0-0-0-0-0-0--------------------------------------|

   My Mama Said To Me

           E                A
E---0-0-0-0-0-0-0-0--0-0-0-0-0-0-0-0---------------------|
B---0-0-0-0-0-0-0-0--2-2-2-2-2-2-2-2---------------------|
G---1-1-1-1-1-1-1-1--2-2-2-2-2-2-2-2---------------------|
D---2-2-2-2-2-2-2-2--2-2-2-2-2-2-2-2---------------------|
A---2-2-2-2-2-2-2-2--0-0-0-0-0-0-0-0---------------------|
E---0-0-0-0-0-0-0-0--------------------------------------|

 There's only one girl in the world for you

           E                A
E---0-0-0-0-0-0-0-0--0-0-0-0-0-0-0-0---------------------|
B---0-0-0-0-0-0-0-0--2-2-2-2-2-2-2-2---------------------|
G---1-1-1-1-1-1-1-1--2-2-2-2-2-2-2-2---------------------|
D---2-2-2-2-2-2-2-2--2-2-2-2-2-2-2-2---------------------|
A---2-2-2-2-2-2-2-2--0-0-0-0-0-0-0-0---------------------|
E---0-0-0-0-0-0-0-0--------------------------------------|

 And she probably lives in Tahiti

(Chorus)
           E                E
E---0-0-0-0-0-0-0-0--0-0-0-0-0-0-0-0---------------------|
B---0-0-0-0-0-0-0-0--0-0-0-0-0-0-0-0---------------------|
G---1-1-1-1-1-1-1-1--1-1-1-1-1-1-1-1---------------------|
D---2-2-2-2-2-2-2-2--2-2-2-2-2-2-2-2---------------------|
A---2-2-2-2-2-2-2-2--2-2-2-2-2-2-2-2---------------------|
E---0-0-0-0-0-0-0-0--0-0-0-0-0-0-0-0---------------------|

I'd go the whole wide world, I'd go the whole wide world

           A                A
E---0-0-0-0-0-0-0-0--0-0-0-0-0-0-0-0---------------------|
B---2-2-2-2-2-2-2-2--2-2-2-2-2-2-2-2---------------------|
G---2-2-2-2-2-2-2-2--2-2-2-2-2-2-2-2---------------------|
D---2-2-2-2-2-2-2-2--2-2-2-2-2-2-2-2---------------------|
A---0-0-0-0-0-0-0-0--0-0-0-0-0-0-0-0---------------------|
E--------------------------------------------------------|

    Just to find her

(Verse 2)
           E                A
E---0-0-0-0-0-0-0-0--0-0-0-0-0-0-0-0---------------------|
B---0-0-0-0-0-0-0-0--2-2-2-2-2-2-2-2---------------------|
G---1-1-1-1-1-1-1-1--2-2-2-2-2-2-2-2---------------------|
D---2-2-2-2-2-2-2-2--2-2-2-2-2-2-2-2---------------------|
A---2-2-2-2-2-2-2-2--0-0-0-0-0-0-0-0---------------------|
E---0-0-0-0-0-0-0-0--------------------------------------|

      Or maybe she's in the Bahamas

           E                A
E---0-0-0-0-0-0-0-0--0-0-0-0-0-0-0-0---------------------|
B---0-0-0-0-0-0-0-0--2-2-2-2-2-2-2-2---------------------|
G---1-1-1-1-1-1-1-1--2-2-2-2-2-2-2-2---------------------|
D---2-2-2-2-2-2-2-2--2-2-2-2-2-2-2-2---------------------|
A---2-2-2-2-2-2-2-2--0-0-0-0-0-0-0-0---------------------|
E---0-0-0-0-0-0-0-0--------------------------------------|

Where the Carribean sea is blue


           E                A
E---0-0-0-0-0-0-0-0--0-0-0-0-0-0-0-0---------------------|
B---0-0-0-0-0-0-0-0--2-2-2-2-2-2-2-2---------------------|
G---1-1-1-1-1-1-1-1--2-2-2-2-2-2-2-2---------------------|
D---2-2-2-2-2-2-2-2--2-2-2-2-2-2-2-2---------------------|
A---2-2-2-2-2-2-2-2--0-0-0-0-0-0-0-0---------------------|
E---0-0-0-0-0-0-0-0--------------------------------------|

Weeping in a tropical moonlit night

           E                A
E---0-0-0-0-0-0-0-0--0-0-0-0-0-0-0-0---------------------|
B---0-0-0-0-0-0-0-0--2-2-2-2-2-2-2-2---------------------|
G---1-1-1-1-1-1-1-1--2-2-2-2-2-2-2-2---------------------|
D---2-2-2-2-2-2-2-2--2-2-2-2-2-2-2-2---------------------|
A---2-2-2-2-2-2-2-2--0-0-0-0-0-0-0-0---------------------|
E---0-0-0-0-0-0-0-0--------------------------------------|

Because nobody's told her 'bout you

(Chorus)
           E                E
E---0-0-0-0-0-0-0-0--0-0-0-0-0-0-0-0---------------------|
B---0-0-0-0-0-0-0-0--0-0-0-0-0-0-0-0---------------------|
G---1-1-1-1-1-1-1-1--1-1-1-1-1-1-1-1---------------------|
D---2-2-2-2-2-2-2-2--2-2-2-2-2-2-2-2---------------------|
A---2-2-2-2-2-2-2-2--2-2-2-2-2-2-2-2---------------------|
E---0-0-0-0-0-0-0-0--0-0-0-0-0-0-0-0---------------------|

I'd go the whole wide world, I'd go the whole wide world

           A                A
E---0-0-0-0-0-0-0-0--0-0-0-0-0-0-0-0---------------------|
B---2-2-2-2-2-2-2-2--2-2-2-2-2-2-2-2---------------------|
G---2-2-2-2-2-2-2-2--2-2-2-2-2-2-2-2---------------------|
D---2-2-2-2-2-2-2-2--2-2-2-2-2-2-2-2---------------------|
A---0-0-0-0-0-0-0-0--0-0-0-0-0-0-0-0---------------------|
E--------------------------------------------------------|

    Just to find her

           E                E
E---0-0-0-0-0-0-0-0--0-0-0-0-0-0-0-0---------------------|
B---0-0-0-0-0-0-0-0--0-0-0-0-0-0-0-0---------------------|
G---1-1-1-1-1-1-1-1--1-1-1-1-1-1-1-1---------------------|
D---2-2-2-2-2-2-2-2--2-2-2-2-2-2-2-2---------------------|
A---2-2-2-2-2-2-2-2--2-2-2-2-2-2-2-2---------------------|
E---0-0-0-0-0-0-0-0--0-0-0-0-0-0-0-0---------------------|

I'd go the whole wide world, I'd go the whole wide world

           A                A
E---0-0-0-0-0-0-0-0--0-0-0-0-0-0-0-0---------------------|
B---2-2-2-2-2-2-2-2--2-2-2-2-2-2-2-2---------------------|
G---2-2-2-2-2-2-2-2--2-2-2-2-2-2-2-2---------------------|
D---2-2-2-2-2-2-2-2--2-2-2-2-2-2-2-2---------------------|
A---0-0-0-0-0-0-0-0--0-0-0-0-0-0-0-0---------------------|
E--------------------------------------------------------|

    Find out where they hide her

(Verse 3)
           E                A
E---0-0-0-0-0-0-0-0--0-0-0-0-0-0-0-0---------------------|
B---0-0-0-0-0-0-0-0--2-2-2-2-2-2-2-2---------------------|
G---1-1-1-1-1-1-1-1--2-2-2-2-2-2-2-2---------------------|
D---2-2-2-2-2-2-2-2--2-2-2-2-2-2-2-2---------------------|
A---2-2-2-2-2-2-2-2--0-0-0-0-0-0-0-0---------------------|
E---0-0-0-0-0-0-0-0--------------------------------------|

Why am I hanging around in the rain out here

           E                A
E---0-0-0-0-0-0-0-0--0-0-0-0-0-0-0-0---------------------|
B---0-0-0-0-0-0-0-0--2-2-2-2-2-2-2-2---------------------|
G---1-1-1-1-1-1-1-1--2-2-2-2-2-2-2-2---------------------|
D---2-2-2-2-2-2-2-2--2-2-2-2-2-2-2-2---------------------|
A---2-2-2-2-2-2-2-2--0-0-0-0-0-0-0-0---------------------|
E---0-0-0-0-0-0-0-0--------------------------------------|

Trying to pick up a girl

           E                A
E---0-0-0-0-0-0-0-0--0-0-0-0-0-0-0-0---------------------|
B---0-0-0-0-0-0-0-0--2-2-2-2-2-2-2-2---------------------|
G---1-1-1-1-1-1-1-1--2-2-2-2-2-2-2-2---------------------|
D---2-2-2-2-2-2-2-2--2-2-2-2-2-2-2-2---------------------|
A---2-2-2-2-2-2-2-2--0-0-0-0-0-0-0-0---------------------|
E---0-0-0-0-0-0-0-0--------------------------------------|

Why are my eyes filling up with these lonely tears

           E                A
E---0-0-0-0-0-0-0-0--0-0-0-0-0-0-0-0---------------------|
B---0-0-0-0-0-0-0-0--2-2-2-2-2-2-2-2---------------------|
G---1-1-1-1-1-1-1-1--2-2-2-2-2-2-2-2---------------------|
D---2-2-2-2-2-2-2-2--2-2-2-2-2-2-2-2---------------------|
A---2-2-2-2-2-2-2-2--0-0-0-0-0-0-0-0---------------------|
E---0-0-0-0-0-0-0-0--------------------------------------|

When there're girls all over the world

           E                A
E---0-0-0-0-0-0-0-0--0-0-0-0-0-0-0-0---------------------|
B---0-0-0-0-0-0-0-0--2-2-2-2-2-2-2-2---------------------|
G---1-1-1-1-1-1-1-1--2-2-2-2-2-2-2-2---------------------|
D---2-2-2-2-2-2-2-2--2-2-2-2-2-2-2-2---------------------|
A---2-2-2-2-2-2-2-2--0-0-0-0-0-0-0-0---------------------|
E---0-0-0-0-0-0-0-0--------------------------------------|

Is she lying on a tropical beach somewhere

           E                A
E---0-0-0-0-0-0-0-0--0-0-0-0-0-0-0-0---------------------|
B---0-0-0-0-0-0-0-0--2-2-2-2-2-2-2-2---------------------|
G---1-1-1-1-1-1-1-1--2-2-2-2-2-2-2-2---------------------|
D---2-2-2-2-2-2-2-2--2-2-2-2-2-2-2-2---------------------|
A---2-2-2-2-2-2-2-2--0-0-0-0-0-0-0-0---------------------|
E---0-0-0-0-0-0-0-0--------------------------------------|

Underneath the tropical sun

           E                A
E---0-0-0-0-0-0-0-0--0-0-0-0-0-0-0-0---------------------|
B---0-0-0-0-0-0-0-0--2-2-2-2-2-2-2-2---------------------|
G---1-1-1-1-1-1-1-1--2-2-2-2-2-2-2-2---------------------|
D---2-2-2-2-2-2-2-2--2-2-2-2-2-2-2-2---------------------|
A---2-2-2-2-2-2-2-2--0-0-0-0-0-0-0-0---------------------|
E---0-0-0-0-0-0-0-0--------------------------------------|

Pining away in a heatwave there

           E                A
E---0-0-0-0-0-0-0-0--0-0-0-0-0-0-0-0---------------------|
B---0-0-0-0-0-0-0-0--2-2-2-2-2-2-2-2---------------------|
G---1-1-1-1-1-1-1-1--2-2-2-2-2-2-2-2---------------------|
D---2-2-2-2-2-2-2-2--2-2-2-2-2-2-2-2---------------------|
A---2-2-2-2-2-2-2-2--0-0-0-0-0-0-0-0---------------------|
E---0-0-0-0-0-0-0-0--------------------------------------|

Hoping that I won't be long

           E                A
E---0-0-0-0-0-0-0-0--0-0-0-0-0-0-0-0---------------------|
B---0-0-0-0-0-0-0-0--2-2-2-2-2-2-2-2---------------------|
G---1-1-1-1-1-1-1-1--2-2-2-2-2-2-2-2---------------------|
D---2-2-2-2-2-2-2-2--2-2-2-2-2-2-2-2---------------------|
A---2-2-2-2-2-2-2-2--0-0-0-0-0-0-0-0---------------------|
E---0-0-0-0-0-0-0-0--------------------------------------|

I should be lying on that sun-soaked beach with her

           E                A
E---0-0-0-0-0-0-0-0--0-0-0-0-0-0-0-0---------------------|
B---0-0-0-0-0-0-0-0--2-2-2-2-2-2-2-2---------------------|
G---1-1-1-1-1-1-1-1--2-2-2-2-2-2-2-2---------------------|
D---2-2-2-2-2-2-2-2--2-2-2-2-2-2-2-2---------------------|
A---2-2-2-2-2-2-2-2--0-0-0-0-0-0-0-0---------------------|
E---0-0-0-0-0-0-0-0--------------------------------------|

Caressing her warm brown skin

           E                A
E---0-0-0-0-0-0-0-0--0-0-0-0-0-0-0-0---------------------|
B---0-0-0-0-0-0-0-0--2-2-2-2-2-2-2-2---------------------|
G---1-1-1-1-1-1-1-1--2-2-2-2-2-2-2-2---------------------|
D---2-2-2-2-2-2-2-2--2-2-2-2-2-2-2-2---------------------|
A---2-2-2-2-2-2-2-2--0-0-0-0-0-0-0-0---------------------|
E---0-0-0-0-0-0-0-0--------------------------------------|

And then in a year or maybe not quite

           E                A
E---0-0-0-0-0-0-0-0--0-0-0-0-0-0-0-0---------------------|
B---0-0-0-0-0-0-0-0--2-2-2-2-2-2-2-2---------------------|
G---1-1-1-1-1-1-1-1--2-2-2-2-2-2-2-2---------------------|
D---2-2-2-2-2-2-2-2--2-2-2-2-2-2-2-2---------------------|
A---2-2-2-2-2-2-2-2--0-0-0-0-0-0-0-0---------------------|
E---0-0-0-0-0-0-0-0--------------------------------------|

We'll be sharing the same next of kin

(Chorus)
           E                E
E---0-0-0-0-0-0-0-0--0-0-0-0-0-0-0-0---------------------|
B---0-0-0-0-0-0-0-0--0-0-0-0-0-0-0-0---------------------|
G---1-1-1-1-1-1-1-1--1-1-1-1-1-1-1-1---------------------|
D---2-2-2-2-2-2-2-2--2-2-2-2-2-2-2-2---------------------|
A---2-2-2-2-2-2-2-2--2-2-2-2-2-2-2-2---------------------|
E---0-0-0-0-0-0-0-0--0-0-0-0-0-0-0-0---------------------|

I'd go the whole wide world, I'd go the whole wide world

           A                A
E---0-0-0-0-0-0-0-0--0-0-0-0-0-0-0-0---------------------|
B---2-2-2-2-2-2-2-2--2-2-2-2-2-2-2-2---------------------|
G---2-2-2-2-2-2-2-2--2-2-2-2-2-2-2-2---------------------|
D---2-2-2-2-2-2-2-2--2-2-2-2-2-2-2-2---------------------|
A---0-0-0-0-0-0-0-0--0-0-0-0-0-0-0-0---------------------|
E--------------------------------------------------------|

    Just to find her

           E                E
E---0-0-0-0-0-0-0-0--0-0-0-0-0-0-0-0---------------------|
B---0-0-0-0-0-0-0-0--0-0-0-0-0-0-0-0---------------------|
G---1-1-1-1-1-1-1-1--1-1-1-1-1-1-1-1---------------------|
D---2-2-2-2-2-2-2-2--2-2-2-2-2-2-2-2---------------------|
A---2-2-2-2-2-2-2-2--2-2-2-2-2-2-2-2---------------------|
E---0-0-0-0-0-0-0-0--0-0-0-0-0-0-0-0---------------------|

I'd go the whole wide world, I'd go the whole wide world

           A                A
E---0-0-0-0-0-0-0-0--0-0-0-0-0-0-0-0---------------------|
B---2-2-2-2-2-2-2-2--2-2-2-2-2-2-2-2---------------------|
G---2-2-2-2-2-2-2-2--2-2-2-2-2-2-2-2---------------------|
D---2-2-2-2-2-2-2-2--2-2-2-2-2-2-2-2---------------------|
A---0-0-0-0-0-0-0-0--0-0-0-0-0-0-0-0---------------------|
E--------------------------------------------------------|

    Find out where they hide her

End...

Enjoy !

Any coments please contact

John_The_Cat@Hotmail.com
Tap to rate this tab
# A B C D E F G H I J K L M N O P Q R S T U V W X Y Z