Song name
# A B C D E F G H I J K L M N O P Q R S T U V W X Y Z

Wreckless Process - More To Believe tab

Artist: Wreckless Process
Album: Pull Your Own Weight
Title: More to Believe

This is a really cool group of guys from Tulsa, OK. My band played a gig with them a
back and they put on one hell of a show...and were really friendly too, very appreciative
their audience. This song is one of there cooler ones, and since its not overly 
I figured I'd try and tab it.

Intro:
   The song starts with a drum fill, then...

d-------------------------------------------------------------------------|
A-------------------------------------------------------------------------|
F--5/7-5/7-5/7-----------5/7-5/7-5/7--------------------------------------|
C--5/7-5/7-5/7--3--8--3--5/7-5/7-5/7--3--8--x--3--------------------------|
G--3/5-3/5-3/5--3--8--3--3/5-3/5-3/5--3--8--x--3--------------------------|
C---------------3--8--3---------------3--8--x--3--------------------------|

d---------------------------------------|------------|-------------------|
A---------------------------------------|------------|-------------------|
F--5/7-5/7-5/7-----------5/7-5/7-5/7----|------------|-------------------|
C--5/7-5/7-5/7--3--8--3--5/7-5/7-5/7--3-|------7-7-7-|----------7-7-7----|
G--3/5-3/5-3/5--3--8--3--3/5-3/5-3/5--3-|------------|-------------------|
C---------------3--8--3---------------3-|-8-8-8------|-10-10-10----------|
                                          P.M           P.M
                                           x2            x2

Breakdown Riff:
d--------------------------------------------------|
A--------------------------------------------------|
F--------------------------------------------------|
C-0000--00--0-0----0000--000000--------------------|
G-0000--00--0-0----0000--000000--------------------|
C-0000--00--0-0----0000--000000--------------------|
kind of a tricky rhythm, just played open though.

Verse:

listen to the song to figure out the exact rhythm...
mostly palm-muted...
d--------------------------------------------------------------------|
A--------------------------------------------------------------------|
F--------------------------------------------------------------------|
C--------------------------------------------------------------5-----|
G-5p3p0-----------------------------5p3p0------------------3h5---5---|
C-------0-0-3---3-3-5---5-5-3---3-3-------0-0-3---3-3-5--5-----------|

d-------------------------------------------------------------------------|
A-------------------------------------------------------------------------|
F-------------------------------------------------------------------------|
C------------------------------------------------------------5p3p0--------|
G-5p3p0------------------------------5p3p0-----------------5-------5p3p0--|
C-------0-0-3---3-3-5---5-5-3---3-3---------0-0-3--3-3-3-5----------------|

d--------------------------------------------------------------------|
A--------------------------------------------------------------------|
F--------------------------------------------------------------------|
C--------------------------------------------------------------5-----|
G-5p3p0-----------------------------5p3p0------------------3h5---5---|
C-------0-0-3---3-3-5---5-5-3---3-3-------0-0-3---3-3-5--5-----------|

d----------------------------------|------------------------------------|
A----------------------------------|------------------------------------|
F----------------------------------|------------------------------------|
C----------------------------------|-------------------5--55-5--55--5-x6|
G-5p3p0----------------------------|-5p3p0-------------5--55-5--55--5---|
C-------0-0-3---3-3-5---5-5-3---3-3|-------0-0-3--3-3--5--55-5--55--5---|
                                      Prechorus                    short

Chorus

Breakdown

Verse

Chorus (watch for a slight variation in strumming, not a big change)

Breakdown

Interlude:

d-------------------------------------------------|
A-------------------------------------------------|
F-7--------------------7--7/9-9/10----------------|
C-7--3--3-3--2--2-2----7--7/9-9/10--3--3--2--2----|
G-5--3--3-3--2--2-2----5--5/7-7/8---3--3--2--2----|
C----3--3-3--2--2-2----------------3--3--2--2-----|

d---------------------------------------|
A---------------------------------------|
F----7-7-7-7---7-7-7-7------------------|
C--0-7-7-7-7-0-7-7-7-7--3--3-3--2--2-2--|
G--0-5-5-5-5-0-5-5-5-5--3--3-3--2--2-2--|
C--0---------0----------3--3-3--2--2-2--|
   <---short strums-->

d-------------------------------------------------------------|
A-------------------------------------------------------------|
F----7-7-7-7---7-7-7-7----------------------------------------|
C--0-7-7-7-7-0-7-7-7-7--3--3-3--2--2-2--5--5-5--3--3-3--7x30?-|
G--0-5-5-5-5-0-5-5-5-5--3--3-3--2--2-2--5--5-5--3--3-3--7-----|
C--0---------0----------3--3-3--2--2-2--5--5-5--3--3-3--7-----|
   <---short strums-->                                  P.M

Chorus (same slight strumming variation)

Breakdown

End

Enjoy! Buy their cd! this is a really cool band, not just your typical metalcore...

http://www.wrecklessprocess.com/

/ = slide up
 = slide down
h = hammer-on
p = pull-off
x = open mute
P.M. = Palm mute

=
Tap to rate this tab
# A B C D E F G H I J K L M N O P Q R S T U V W X Y Z