Song name
# A B C D E F G H I J K L M N O P Q R S T U V W X Y Z

Wrens - The House That Guilt Built tab

this is a classic opener off the wren's equally classic album 'the meadowlands.'

start with this beautiful chord:

E||--0---------||
B||--0---------||
G||--8---------||
D||--9---------||
A||--9---------||
E||--7---------||

then strum these chords:
E||--0---------0---------|
B||--0---------4---------|
G||--8----7----4----7----|
D||--9----8----6----8----|
A||--9----8----6----8----|
E||--7---------4---------|

then (and i'm nowhere near):
E||--0-----------9----0----|--0----||
B||--0-----------9----0----|--0----||
G||--8-----9-----9----1----|--8----||
D||--9----10----11----2----|--9----||
A||--9----10----11----2----|--9----||
E||--7-----8-----9----0----|--7----||

finally end playing the opening chord once more
happy jamming.
Tap to rate this tab
# A B C D E F G H I J K L M N O P Q R S T U V W X Y Z