Song name
# A B C D E F G H I J K L M N O P Q R S T U V W X Y Z

Wretch 32 - Unorthodox tab

Unorthodox - Wretch 32
Standard tuning

Main riff:

  .       .        .        .
e|--------------------------------|
B|--------------------------------|
G|--------------------------------|
D|----7---7---5p4h5p4-5-----------|
A|--------------------------------|
E|5-------------------------------|

  .       .        .        .
e|--------------------------------|
B|--------------------------------|
G|--------------------------------|
D|--------------------------------|
A|3p2p3p2-3-----2--3--------------|
E|----------------------3---3---5-|


  .       .        .        .
e|--------------------------------|
B|--------------------------------|
G|--------------------------------|
D|----7---7---5p4h5p4---5---------|
A|--------------------------------|
E|5-------------------------------|

  .       .        .        .
e|--------------------------------|
B|--------------------------------|
G|--------------------------------|
D|--------------------------------|
A|3p2p3p2-3--3---2-3------------5-|
E|----------------------3---3-----|  (slightly different than 1st time)

---

Chorus:
Just the basic chords to the song (it's a break from playing the main riff over and over!)

          |        |        |
e|5-5--5--|3-3--3--|8-8--8--|3-3--3--|
B|5-5--5--|3-3--3--|8-8--8--|3-3--3--|
G|6-6--6--|4-4--4--|9-9--9--|4-4--4--|
D|7-7--7--|5-5--5--|1010-10-|5-5--5--|
A|7-7--7--|5-5--5--|1010-10-|5-5--5--|
E|5-5--5--|3-3--3--|8-8--8--|3-3--3--|
Tap to rate this tab
 
# A B C D E F G H I J K L M N O P Q R S T U V W X Y Z