Song name
# A B C D E F G H I J K L M N O P Q R S T U V W X Y Z

Wretch 32 - Dont Go tab

-------------------------------------------------------------------------------
			     DON'T GO - Wretch 32 ft. Josh Kumra
-------------------------------------------------------------------------------
Tabbed by: Matthew Wood
Email: mattywood123@hotmail.co.uk

Tuning: standard

e|-----6--------6--------6-----------------6--------5--------3--------3------|
B|-----8--------8--------8-----------------8--------6--------4--------4------|
G|-----7--------7--------7-----------------7--------7--------3--------3------|
D|-----8--------8--------8-----------------8--------7--------5--------5------|
A|-----6--------6--------6-----------------6--------5--------3--------3------|
E|-----6--------6--------6-----------------6--------5--------3--------3------|

e|-----3--------3--------3-----------------3--------3--------3--------3------|
B|-----4--------3--------4-----------------3--------3--------3--------3------|
G|-----3--------3--------3-----------------3--------3--------3--------5------|
D|-----5--------5--------5-----------------3--------3--------3--------3------|
A|-----3--------3--------3-----------------5--------5--------5--------5------|
E|-----3--------3--------3-----------------3--------3--------3--------3------|

e|-----3--------3--------3--------3--------3--------3------------------------------|
B|-----3--------3--------3--------3--------3--------3------------------------------|
G|-----5--------3--------3--------3--------5--------5------------------------------|
D|-----3--------3--------3--------3--------3--------3------------------------------|
A|-----5--------5--------5--------5--------5--------5------------------------------|
E|-----3--------3--------3--------3--------3--------3-------and repeat throughout--|
Tap to rate this tab
# A B C D E F G H I J K L M N O P Q R S T U V W X Y Z