Song name
# A B C D E F G H I J K L M N O P Q R S T U V W X Y Z

Wretch 32 - Blackout Acoustic tab

Standard tuning, capo on 1st

Intro
---------------------------------------------------------------------------|
3--5-----------------------------------------------------------------------|
--------2--4---------------------------------------------------------------|
---------------5--7-------7--9--5------------------------------------------|
---------------------------------------7------9----------------------------|
---------------------------------------------------------------------------|


Verse
------------------------------------------------------------|
------------------------------------------------------------|
------------------------------------------------------------|
0--2--------------------------------------------------------|
-------0--2------0-----------------0--2---------------------|
---------------3----------------------------3---0--------3--|



Chorus
3----3----3----3----3----3-------|
3----3----3----3----3----3-------|
0----0----0----0----0----0-------|
2----0----2----2----0----2-------|
2----2----3----3----2----2-------|
0----3----x----x----3----0-------|
Tap to rate this tab
# A B C D E F G H I J K L M N O P Q R S T U V W X Y Z