Write This Down - Renegade tab

Renegade Tab by Write This Down

I looked all over the internet for this tab and nobody seemed to have it,
so I tabbed it all out by ear. This is my first tab so I'm sorry if I got
some things wrong. It should be pretty accurate, though.
The tuning is Drop C.

/=hammer on
\=pull of
  /  \
 /    \=slide up/slide down
/      \
*=palm mute
+=staccato

Intro:
--------------------------------------------------------------------------|
--------------------------------------------------------------------------|
-----------------------5--5--5--5---------------------X--X----------------|
-----------------------5--5--5--5---------------------X--X----------------|
-----------------------3--3--3--3---------------------X--X----------------|
----0--0-----0--0---------------------0--0----0--0------------------------|

Chorus:
--------------------------------------------------------------------------|
--------------------------------------------------------------------------|
--------------------------------------------------------------------------|
--------------------------------------------------------------------------|
--------------------------------------------------------------------------|
---0--0---0-5\0-0-0-0-0-0-0-5\0-0-3\0-0-0-5\0-0-3\0-0-5\0-----------------|

"We are the renegades..."

--------------------------------------------------------------------------|
--------------------------------------------------------------------------|
--------3----------------------5------------------------------------------|
--------3----------------------5------------------------------------------|
--------1-x16------------------3-x16--------------------------------------|
--------------------------------------------------------------------------|

"There's no stopping us..."

Verse 1:
--------------------------------------------------------------------------|
--------------------------------------------------------------------------|
------------------------------5--5--5--5----------------------------------|
------------------------------5--5--5--5----------------------------------|
------------------------------3--3--3--3----------------------------------|
---0--0--------0--0---------------------------x4--------------------------|

"It's just a matter of time..."

Chorus:
--------------------------------------------------------------------------|
--------------------------------------------------------------------------|
--------------------------------------------------------------------------|
--------------------------------------------------------------------------|
--------------------------------------------------------------------------|
---0--0---0-5\0-0-0-0-0-0-0-5\0-0-3\0-0-0-5\0-0-3\0-0-5\0-----------------|

"We are the renegades..."

--------------------------------------------------------------------------|
--------------------------------------------------------------------------|
--------3----------------------5------------------------------------------|
--------3----------------------5------------------------------------------|
--------1-x16------------------3-x16--------------------------------------|
--------------------------------------------------------------------------|

"There's no stopping us..."

--------------------------------------------------------------------------|
--------------------------------------------------------------------------|
--------------------------------------------------------------------------|
-------------------0------------------------------------------------------|
-------------------0------------------------------------------------------|
---0-0-0-0-0-0-0-0-0--3\0-0-5\0-0-3\0-5\0-0-0-0-0-0-0-5\0-0-3\0-0-0-5\0---|
   * * * * * * * *

"We are the renegades..."

--------------------------------------------------------------------------|
--------------------------------------------------------------------------|
--------3----------------------5------------------------------------------|
--------3----------------------5------------------------------------------|
--------1-x16------------------3-x16--------------------------------------|
--------------------------------------------------------------------------|

"There's no stopping us..."

Bridge 1:
--------------------------------------------------------------------------|
--------------------------------------------------------------------------|
--------------------------------------------------------------------------|
----0-------\-----------------/-------------------------------------------|
----0--------\---------------/--------------------------------------------|
----0---------\----0--0-----/---------------------------------------------|
	                   +  +

-----------------------------------------14-------------------------------|
-----------------------------------------14-------------------------------|
-----------------------------------------16-------------------------------|
----0--0-----\------------------------------------------------------------|
----0--0------\-----------------------------------------------------------|
----0--0-------\----0--0--------------------------------------------------|
	                    +  +

Verse 2:
--------------------------------------------------------------------------|
--------------------------------------------------------------------------|
------------------------------5--5--5--5----------------------------------|
------------------------------5--5--5--5----------------------------------|
------------------------------3--3--3--3----------------------------------|
---0--0--------0--0---------------------------x4--------------------------|

"Move as fast as you can..."

Break:
--------------------------------------------------------------------------|
--------------------------------------------------------------------------|
---------------------------------3--------------5-------------------------|
----0-------------0--------------3--------------5-------------------------|
----0-------------0--------------1--------------3-------------------------|
----0-------------0-------------------------------------------------------|

"Forgiveness..."

--------------------------------------------------------------------------|
--------------------------------------------------------------------------|
-------------------3--------------5---------------------------------------|
----0--------------3--------------5---------------------------------------|
----0--------------1-x16----------3-x16-----------------------------------|
----0-x32-----------------------------------------------------------------|
    *              *        (slowly release palm mute)

Bridge 1:
--------------------------------------------------------------------------|
--------------------------------------------------------------------------|
--------------------------------------------------------------------------|
----0-------\-----------------/-------------------------------------------|
----0--------\---------------/--------------------------------------------|
----0---------\----0--0-----/---------------------------------------------|
	                   +  +

-----------------------------------------14-------------------------------|
-----------------------------------------14-------------------------------|
-----------------------------------------16-------------------------------|
----0--0-----\------------------------------------------------------------|
----0--0------\-----------------------------------------------------------|
----0--0-------\----0--0--------------------------------------------------|
	                    +  +

--------------------------------------------------------------------------|
--------------------------------------------------------------------------|
--------------------------------------------------------------------------|
----0-------\-----------------/-------------------------------------------|
----0--------\---------------/--------------------------------------------|
----0---------\----0--0-----/---------------------------------------------|
	                   +  +

-----------------------------------------14-------------------------------|
-----------------------------------------14-------------------------------|
-----------------------------------------16-------------------------------|
----0--0-----\------------------------------------------------------------|
----0--0------\-----------------------------------------------------------|
----0--0-------\----0--0--------------------------------------------------|
                    +  +
Bridge 2:
--------------------------------------------------------------------------|
--------------------------------------------------------------------------|
---10-------------10-------------10------3----12-------5------------------|
---X--------0-----X--------0-----X-------3----X--------5------------------|
---8-x4-----0-----8-x4-----0-----8-x4----1----10-x4----3------------------|
------------0--------------0----------------------------------------------|


--------------------------------------------------------------------------|
--------------------------------------------------------------------------|
---10------------10--------------10------3-----12-------5-----------------|
---X--------0-----X--------0-----X-------3-----X--------5-----------------|
---8-x4-----0-----8-x4-----0-----8-x4----1-----10-x4----3-----------------|
------------0--------------0----------------------------------------------|

Chorus:
--------------------------------------------------------------------------|
--------------------------------------------------------------------------|
--------------------------------------------------------------------------|
--------------------------------------------------------------------------|
--------------------------------------------------------------------------|
---0--0---0-5\0-0-0-0-0-0-0-5\0-0-3\0-0-0-5\0-0-3\0-0-5\0-----------------|

"We are the renegades..."

--------------------------------------------------------------------------|
--------------------------------------------------------------------------|
--------3----------------------5------------------------------------------|
--------3----------------------5------------------------------------------|
--------1-x16------------------3-x16--------------------------------------|
--------------------------------------------------------------------------|

"There's no stopping us..."

--------------------------------------------------------------------------|
--------------------------------------------------------------------------|
--------------------------------------------------------------------------|
-------------------0------------------------------------------------------|
-------------------0------------------------------------------------------|
---0-0-0-0-0-0-0-0-0---3\0-0-5\0-0-3\0-5\0-0-0-0-0-0-0-5\0-0-3\0-0-0-5\0--|
   * * * * * * * *

"We are the renegades..."

--------------------------------------------------------------------------|
--------------------------------------------------------------------------|
--------3----------------------5------------------------------------------|
--------3----------------------5------------------------------------------|
--------1-x16------------------3-x16--------------------------------------|
--------------------------------------------------------------------------|

"There's no stopping us..."

Outro:
--------------------------------------------------------------------------|
--------------------------------------------------------------------------|
--------------------------------------------------------------------------|
----0-------\-----------------/-------------------------------------------|
----0--------\---------------/--------------------------------------------|
----0---------\----0--0-----/---------------------------------------------|
	                   +  +

-----------------------------------------14-------------------------------|
-----------------------------------------14-------------------------------|
-----------------------------------------16-------------------------------|
----0--0-----\------------------------------------------------------------|
----0--0------\-----------------------------------------------------------|
----0--0-------\----0--0--------------------------------------------------|
	                    +  +

--------------------------------------------------------------------------|
--------------------------------------------------------------------------|
--------------------------------------------------------------------------|
----0-------\-----------------/-------------------------------------------|
----0--------\---------------/--------------------------------------------|
----0---------\----0--0-----/---------------------------------------------|
	                   +  +

--------------------------------------------------------------------------|
--------------------------------------------------------------------------|
--------------------------------------------------------------------------|
----0--0-----\------------------------------------------------------------|
----0--0------\-----------------------------------------------------------|
----0--0-------\----0--0--------------------------------------------------|
                    +  +
Tap to rate this tab
 
# A B C D E F G H I J K L M N O P Q R S T U V W X Y Z