Song name
# A B C D E F G H I J K L M N O P Q R S T U V W X Y Z

Write This Down - Minnesota Interlude tab

Intro/Verse - 3x

E|-----------------------------------------------------------------|
B|-----------------------------------------------------------------|
G|-----0-------0-------0-------0-------0-------0-------0-------0---|
D|---7---7---7---7---7---7---7---7---5---5---5---5---5---5---5---5-|
A|-8-------8-------8-------8-------7-------7-------7-------7-------|
E|-----------------------------------------------------------------|

E|-----------------------------------------------------------------|
B|-----------------------------------------------------------------|
G|-----0-------0-------0-------0-------0-------0-------0-------0---|
D|---3---3---3---3---3---3---3---3---3---3---3---3---3---3---3---3-|
A|-5-------5-------5-------5-------1-------1-------1-------1-------|
E|-----------------------------------------------------------------|


Pre-Chorus - 3x

E|---------------------------------------------------------------------|
B|---------------------------------------------------------------------|
G|-----0-------0-------0-------0--------0--------0--------0--------0---|
D|---7---7---7---7---7---7---7---7----8---8----8---8----8---8----8---8-|
A|-8-------8-------8-------8-------10-------10-------10-------10-------|
E|---------------------------------------------------------------------|

E|-----------------------------------------------------------------|
B|-----------------------------------------------------------------|
G|-----0-------0-------0-------0-------0-------0-------0-------0---|
D|---3---3---3---3---3---3---3---3---3---3---3---3---3---3---3---3-|
A|-5-------5-------5-------5-------1-------1-------1-------1-------|
E|-----------------------------------------------------------------|

Transition After 3rd Time

E|-----------|
B|-----3-----|
G|-----3-----|
D|-----3-----|
A|-----1-----|
E|-----------|


Chorus - 2x - Play each chord 16x (Palm mute 1st time, Strum 2nd time)

E|-----------------------------|
B|-----------------------------|
G|-----2-----3-----7-----2-----|
D|-----3-----5-----8-----3-----|
A|-----3-----5-----8-----3-----|
E|-----1-----3-----6-----1-----|


Verse 2 - 3x

E|-----------------------------------------------------------------|
B|-----------------------------------------------------------------|
G|-----0-------0-------0-------0-------0-------0-------0-------0---|
D|---7---7---7---7---7---7---7---7---5---5---5---5---5---5---5---5-|
A|-8-------8-------8-------8-------7-------7-------7-------7-------|
E|-----------------------------------------------------------------|

E|-----------------------------------------------------------------|
B|-----------------------------------------------------------------|
G|-----0-------0-------0-------0-------0-------0-------0-------0---|
D|---3---3---3---3---3---3---3---3---3---3---3---3---3---3---3---3-|
A|-5-------5-------5-------5-------1-------1-------1-------1-------|
E|-----------------------------------------------------------------|
Tap to rate this tab
 
# A B C D E F G H I J K L M N O P Q R S T U V W X Y Z