Song name
# A B C D E F G H I J K L M N O P Q R S T U V W X Y Z

Wu Lyf - Heavy Pop tab

Intro:

e|-------------------------------------|
B|-------------------------------10----|
G|---10-----12-----10-----12---------12| x2
D|-------------------------------------|
A|-------------------------------------|
E|-------------------------------------|

e|-------------------------------------|
B|-----------------10------------------|
G|---10-----12-------------------------| x7
D|-------------------------------------|
A|-------------------------------------|
E|-------------------------------------|

This part then appears a few times:

e|----------------------------------------------------|
B|---------------------------10-10-10-13--10----------|
G|---10-10-10-10-12-12-12-12-----------------12-10----|
D|----------------------------------------------------|
A|----------------------------------------------------|
E|----------------------------------------------------|

All I've tabbed so far, feel free to add more.
Tap to rate this tab
# A B C D E F G H I J K L M N O P Q R S T U V W X Y Z