Song name
# A B C D E F G H I J K L M N O P Q R S T U V W X Y Z

Wu Lyf - Dirt tab

WU LYF - Dirt
All rights reserved by LYF Recordings & Wu Lyf

Ive basically tabbed out the main riff for the song, not too sure on the chorded 'funk' 
style bits near the end, but you'll get the jist.

Tuning - Standard

Main Riff -

e|--------------------------------------|
B|--------------------------------------|
G|--------------------------------------|
D|-------10--12-------10--12------------|
A|--12-----------12---------------------|
E|--------------------------------------|

e|--------------------------------------|
B|--------------------------------------|
G|-------9--12--------9-----------------|
D|--10-----------10------12-------------|
A|--------------------------------------|
E|--------------------------------------|

Enjoy, feel free to add anything to it.
As i said it still needs the Chorded parts added.
Tap to rate this tab
# A B C D E F G H I J K L M N O P Q R S T U V W X Y Z