Song name
# A B C D E F G H I J K L M N O P Q R S T U V W X Y Z

Wu Lyf - Concrete Gold tab

-------------------------------------------------------------------------------
                             Concrete Gold - Wu Lyf
-------------------------------------------------------------------------------
Tabbed by: Freddie Macauley
E-mail: fmacauley2@gmail.com

Tuning: Standard

I know this isn't the whole song, however I am busy at the moment and might not find 
time to tab the rest. Hence I'm uploading this in the hope that it's better than nothing as 
there are currently no tabs for this song on the site! I'll update it if I tab anymore :)

Verse:

This is played on a piano normally.

e|--9---9---12--10-----------9--|
B|-(10)(10)(10)(10)-10--10-(10)-|
G|-----------------(11)(11)-----|  X3
D|------------------------------|
A|------------------------------|
E|------------------------------|

e|------------------------------|
B|--------------10--------------|
G|--11--11--11-(11)-------------|  X1
D|-(12)(12)(12)-----------------|
A|------------------------------|
E|------------------------------|


Outro:

e|-----------12-14-17-14--(14)--12-14-14-12----12--17--|
B|----12-14---------------------------------15---------|
G|-14--------------------------------------------------|
D|-----------------------------------------------------|
A|-----------------------------------------------------|
E|-----------------------------------------------------|

Slight variations of this basic outro structure, should be easy enough to figure out 
from there.
Tap to rate this tab
# A B C D E F G H I J K L M N O P Q R S T U V W X Y Z