Song name
# A B C D E F G H I J K L M N O P Q R S T U V W X Y Z

Wu Lyf - We Bros tab

WU LYF - We Bros
From the album "Go Tell Fire To The Mountain" (2012).

Tabbed by Isaac Murguia,  September 8, 2013.
Originally uploaded to Ultimate-Guitar.com
YouTube: Goadiroth

INTRO A:
e|-------------------------------|
B|-------------------------------|
G|-12-12-12-12-(x7)--12-12-12-10-|
D|-------------------------------|
A|-------------------------------|
E|-------------------------------|

INTRO B:
e|----------------------------------------------|
B|----------------------------------------------|
G|-10---10-10------10--12-12-12-12--12-12-12-10-|
D|-12---12-12---12-12---------------------------|
A|-13---13-13---13------------------------------|
E|----------------------------------------------| [x4]

VERSE: Repeat "INTRO B" [x6]

VERSE CONTINUED:
e|----------------------------------------------------|
B|----------------------------------------------------|
G|--------------10-10-10-10--12-12-12-12--12-12-12-10-|
D|-13-13-13-13----------------------------------------|
A|----------------------------------------------------|
E|----------------------------------------------------|

e|---------------10-10-10-10-|
B|---------------11-11-11-11-|
G|-10---10-10----10-10-10-10-|
D|-12---12-12----------------|
A|-13---13-13----------------|
E|---------------------------|

CHORUS: [x8]

e|-10-10-10-10-13--10-|-10-10-10-10-10-13--10-|
B|-11-11-11-11-11--11-|-11-11-11-11-11-11--11-|
G|-10-10-10-10-10--10-|-10-10-10-10-10-13--10-|
D|--------------------|-----------------------|
A|--------------------|-----------------------|
E|--------------------|-----------------------|

e|-------------------------------|--10-|
B|8-8-8-8-8-6--8--3-3-3-3-3-1--3-|--11-|
G|8-8-8-8-8-8--8--3-3-3-3-3-3--3-|--10-|
D|-------------------------------|-----| don't repeat last chord
A|-------------------------------|-----| on last repetition
E|-------------------------------|-----|

CHORD:
e|----------|
B|-8--------|
G|-8--------|
D|-8--------|
A|-6--------|
E|----------|

MELODY #1:
e|------------10-------------10-|-10------------------------|
B|-----11-13----------11-13-----|----13-------11------------|
G|-12-------------12------------|-------10h12-----10--12-10-|
D|------------------------------|---------------------------|
A|------------------------------|---------------------------|
E|------------------------------|---------------------------|

e|------------10-------------10-|-10---------------------------|
B|-----11-13----------11-13-----|----13-------11---------------|
G|-12-------------12------------|-------10h12-----10--12----10-|
D|------------------------------|------------------------12----|
A|------------------------------|------------------------------|
E|------------------------------|------------------------------|

e|------------10-------------10-|-10-----------------------------|
B|-----11-13----------11-13-----|----13-------11-----------------|
G|-12-------------12------------|-------10h12-----10-10-12----10-|
D|------------------------------|--------------------------12----|
A|------------------------------|--------------------------------|
E|------------------------------|--------------------------------|

e|------------10-------------10-|-10---------------------------|
B|-----11-13----------11-13-----|----13-------11---------------|
G|-12-------------12------------|-------10h12-----10--12----10-|
D|------------------------------|------------------------12----|
A|------------------------------|------------------------------|
E|------------------------------|------------------------------|

Repeat CHORUS [X6]
Repeat CHORD

MELODY #2:
         [x2]
e|-------------------|-----------------|--------------10----------|
B|-------------------|-----------------|-----------------13-------|
G|-------------------|-----------------|-10-12--12-10-------12-10-|
D|-8--8----8-8--8h10-|-12--12-10-12-12-|--------------------------|
A|------10-----------|-----------------|--------------------------|
E|-------------------|-----------------|--------------------------| [x4]

"WE BROS...":
         [x2]
e|-10-10-10--8-8-8-|-10-10-10--13-13-13--13-13-|-10-10-10--10-10-10-|
B|-11-11-11--8-8-8-|-11-11-11--11-11-11--11-11-|-10-10-10--10-10-10-|
G|-10-10-10--8-8-8-|-10-10-10--10-10-10--10-10-|-10-10-10--10-10-10-|
D|-----------------|---------------------------|--------------------|
A|-----------------|---------------------------|--------------------|
E|-----------------|---------------------------|--------------------| [x2]

            [x2]
e|-10-10-10--88-8-8-8-8-|-10-10-10--13-13--13-13-13-10-|-10-10-10--13-13-13-13-10-|
B|-11-11-11--88-8-8-8-8-|-11-11-11--11-11--11-11-11-10-|-10-10-10--10-10-10-10-10-|
G|-10-10-10--88-8-8-8-8-|-10-10-10--10-10--10-10-10-10-|-10-10-10--10-10-10-10-10-|
D|----------------------|------------------------------|--------------------------|
A|----------------------|------------------------------|--------------------------|
E|----------------------|------------------------------|--------------------------| [x2]

...break...

OUTRO A:
         [x2]
e|-10-10-10--8-8-8-|-10-10-10--13-13-13-|-10-10-10--10-10-10-|
B|-11-11-11--8-8-8-|-11-11-11--11-11-11-|-10-10-10--10-10-10-|
G|-10-10-10--8-8-8-|-10-10-10--10-10-10-|-10-10-10--10-10-10-|
D|-----------------|--------------------|--------------------|
A|-----------------|--------------------|--------------------|
E|-----------------|--------------------|--------------------| [x3]

         [x2]
e|-10-10-10--8-8-8-|-10-10-10--13-13-13-|-10-10-10--13-13-13--13-10-|
B|-11-11-11--8-8-8-|-11-11-11--11-11-11-|-10-10-10--10-10-10--10-10-|
G|-10-10-10--8-8-8-|-10-10-10--10-10-10-|-10-10-10--10-10-10--10-10-|
D|-----------------|--------------------|---------------------------|
A|-----------------|--------------------|---------------------------|
E|-----------------|--------------------|---------------------------|

OUTRO B:
           [x2]
e|-10-10-10--88-8-8-8-8-|-10-10-10--13-13--13-13-13-10-|-10-10-10--13-13--13-13-13-10-|
B|-11-11-11--88-8-8-8-8-|-11-11-11--11-11--11-11-11-10-|-10-10-10--10-10--10-10-10-10-|
G|-10-10-10--88-8-8-8-8-|-10-10-10--10-10--10-10-10-10-|-10-10-10--10-10--10-10-10-10-|
D|----------------------|------------------------------|------------------------------|
A|----------------------|------------------------------|------------------------------|
E|----------------------|------------------------------|------------------------------|

Repeat OUTRO until end...

RIFF IN BACKGROUND:
e|-10----------|
B|----13-------|
G|-------12-10-|
D|-------------|
A|-------------|
E|-------------|

End. Please rate!
Tap to rate this tab
# A B C D E F G H I J K L M N O P Q R S T U V W X Y Z