Guitaretab - guitar tabs
Song name
# A B C D E F G H I J K L M N O P Q R S T U V W X Y Z

Wu-tang Clan - The Heart Gently Weeps tab

-------------------------------------------------------------------------------
	THE HEART GENTLY WEEPS - Wu-Tang Clan
-------------------------------------------------------------------------------
Tabbed by: cyrosaurus
Email: cyrus.mceachern@gmail.com

my 1st tab :)

The lead guitar on this song is done by John Frusciante
from the Red Hot Chili Peppers.  I think it's a sweet
riff and was surprised to see that no one had tabbed it, 
so i gave it my best shot. here goes:

Tuning: standard
[ Tab from: http://www.guitaretab.com/w/wu-tang-clan/113756.html ]
e|--0--5-7-8/10----8-10/12----(8)h10p8-7-------5-7-8/10-8--|
B|---------------------------------------------------------|
G|---------------------------------------------------------|
D|---------------------------------------------------------|
A|---------------------------------------------------------|
E|---------------------------------------------------------|

e|-7-7\5---------------------------------------------------|
B|-------5-------------------------------------------------|
G|---------7b8r7p5\4---------------------------------------|
D|---------------------5h7---------------------------------|
A|----------------------------5h7---3h5---2h3p2------------|
E|-------------------------------------------------3--1--0-|

simple enough! listen to the track for timing.


| /  slide up
| \  slide down
| h  hammer-on
| p  pull-off
| b  bend
| r  release bend
| ( ) ghost note
===============================================================================
Related for The Heart Gently Weeps tab