Song name
# A B C D E F G H I J K L M N O P Q R S T U V W X Y Z

Wu-tang Clan - Method Man tab

Main riff
e|----------------||
B|------------9---||
G|------------8---||
D|8---8---9---9---||
A|----------------||
E|----------------|| 
  1   2   3   4



This part plays around 2:49
e|---------------||
B|---------------||
G|7b--7b--7b-----||
D|---------------||
A|---------------||
E|---------------|| 
  1   2   3   4 
Tap to rate this tab
 
# A B C D E F G H I J K L M N O P Q R S T U V W X Y Z