Song name
# A B C D E F G H I J K L M N O P Q R S T U V W X Y Z

Wu-tang Clan - Shame On A Nigga tab

As heard here: http://www.youtube.com/watch?v=sHJjmE_cDSQ

Tabbed by: yesmandroc
Email:yesmandroc@yahoo.com

Tuning: Standard

x=tab on top of guitar with available R.H. fingertips next to soundhole

Intro/Chorus                Verse            Raekwon Verse
e|---------x---------x-----|----x-------x---|--------------0-----------------|
B|-3-3-3-3---3-5^3-3^5^3-3-|-3--------------|--4-3-2-1-0---------------------|
G|-4-4-4-4-----------------|-4--------------|--2---------3-------------------|
D|-4-4-4-4-----------------|-4--------------|--------------------------------|
A|-2-2-2-2-----------------|-2--------------|--2-----------------------------|
E|-----------0-2^0-0^2^0-0-|------0-2-0-2-0-|--------0-2-0-2-0---------------|

Monk line before last verse      Outro
e|-8-7-5-------|----x-----------|-8-7-5-------|----||
B|-7-6-4-7-5-3-|-1--------------|-7-6-4-7-5-3-|----||
G|-8-7-5-5-3-1-|----------------|-8-7-5-5-3-1-|-5--||
D|-7-6-4-7-5-3-|-4--------------|-7-6-4-7-5-3-|-4--||
A|-------6-4-2-|-2--------------|-------6-4-2-|-6--||
E|-------------|------0-2-0-2-0-|-------------|-5--||

Tap to rate this tab
# A B C D E F G H I J K L M N O P Q R S T U V W X Y Z