Song name
# A B C D E F G H I J K L M N O P Q R S T U V W X Y Z

Wu-tang Clan - Reunited tab

My first tab, I'm really just posting it cause there's no version of it and hope someone
can improve and/or expand upon it.

   E-----------------------------|
   B-----------------------------|
   G-3------------3--------------|
   D-3------------3--------------|
   A-1----1-1-1---1--------------|
   E-------------------4---------|(5)-(6)
(5-6 bassline is played at later parts)

   E-6---6-4-8-6---------------------------------------------|
   B-----------------2-4-4-2-4-2-------------6-4-2-4-6-------|
   G---------------------------------3---3-3-----------------|
   D---------------------------------------------------------|
   A---------------------------------------------------------|
   E---------------------------------------------------------|


   E-8-6---6-4-8-6--------------------------------------------|
   B-------------------2-4-4-2-4-2-------------6-4-2-4-6------|
   G-----------------------------------3---3-3----------------|
   D----------------------------------------------------------|
   A----------------------------------------------------------|
   E----------------------------------------------------------|

2.34
   E------6-x9---------------------|
   B------------6-x3---------------|
   G---3-x6------------------------|
   D-------------------------------|
   A-------------------------------|
   E-------------------------------|
repeat these per 3 like you hear in the song

I might give the remaining parts a go soon, please improve and/or expand upon it if you 
can, thanks!
Tap to rate this tab
# A B C D E F G H I J K L M N O P Q R S T U V W X Y Z