Song name
# A B C D E F G H I J K L M N O P Q R S T U V W X Y Z

Wu-tang Clan - Yall Been Warned tab

-------------------------------------------------------------------------------
			     Y'ALL BEEN WARNED - Wu-tang Clan
-------------------------------------------------------------------------------
Tabbed by: cuttingham
Email:

Tuning: standard

e|---------------------------------------------------------------------------|
B|---------------------------------------8-------x----8----------------------|
G|-------7------------------------------x------------------------------------|
D|--------------8-p-7----8-p-7--8------x-------------------------------------|
A|------------------------------------x--------------------------------------|
E|---------------------------------------------------------------------------|

...and the little ending part...

e|---------------------------------------------------------------------------|
B|---------------------------------------8-------x----8----------------------|
G|-------7------------------------------x------------------------------------|
D|--------------8-p-7----8-p-7--8------x-------------------------------------|
A|------------------------------------x---------------------5-3--------------|
E|--------------------------------------------------------------6--5--3------|

| /  slide up
| \  slide down
| h  hammer-on
| p  pull-off
| ~  vibrato
| +  harmonic
| x  Mute note
===============================================================================
Tap to rate this tab
# A B C D E F G H I J K L M N O P Q R S T U V W X Y Z