Guitaretab - guitar tabs
Song name
# A B C D E F G H I J K L M N O P Q R S T U V W X Y Z

Wunderkammer - Tres Cojones tab

Wunderkammer is norwegian gypsiepunkband.
Read about them on http://www.skarv.no/wunderkammer/index.htm


Chord   G   G#  A#  C   Bb
e       3   4   6   3   1
B       3   4   6   5   3
G       4   5   7   5   3 
D       5   6   8   5   3
A       5   6   8   3   1
E       3   4   6   x   x

First there is a chord-part (played by accordion, but I suspect most of you
don't have one and couldn't play it even if you had, so feel free to play it
on the guitar), which is:

G-G-G-G#-G-G-G-A#

Six times. Don't play the A# the last time. Instead you start directly on the
melody-part, which goes like this:

e-----|------------------------------------------------------------------------
B-----|------------------------------------------------------------------------
G-----|------------------------------------------------------------------------
D-----|------------5---5-5-5--3-------3----------------------------------------
A-----|3---3---6------------------6-------5~-----------------------------------
E--6--|------------------------------------------------------------------------
 Instead
 of   |
 A#   |


e------------------------------------------------------------------------------
B------------------------------------------------------------------------------
G-----------------------------------------3------------------------------------
D------------------5---5-5-5--3-------3----------------------------------------
A------3---3---6------------------6--------------------------------------------
E--6---------------------------------------------------------------------------


e----------------------------------|-------------------------------------------
B--------------3-4---------------4-|-3~----------------------------------------
G------3-3-3-5-------5-------5-----|-3~----------------------------------------
D------------------------6---------|-------------------------------------------
A----------------------------------|-------------------------------------------
E----------------------------------|-------------------------------------------
                                   |Or Bb~

 
e------------------------------------------------------------------------------
B------------------------------------------------------------------------------
G------------------------------------------------------------------------------
D------------------------------------------------------------------------------
A-----------------------333333-3-3---------------------------------------------
E------3---444444-4-6--------------6-4-333333-3-4-666666-4-3-111111------------

[ Tab from: http://www.guitaretab.com/w/wunderkammer/32394.html ]
e------------------------------------------------------------------------------
B------------------------------------------------------------------------------
G------------------------------------------------------------------------------
D------------------------------------------------------------------------------
A------------------3---------222222-2-2---222222-2-2---------------------------
E------3---4-------------------------------------------------------------------


e------------------------------------------------------------------------------
B------------------------------------------------------------------------------
G------------------------------------------------------------------------------
D------------------------------------------------------------------------------
A------333333-3-3---333333-3-3---555555-5-5---555555-5-5-----------------------
E------------------------------------------------------------------------------


e------------------------------------------------------------------------------
B------------------------------------------------------------------------------
G------------------------------------------------------------------------------
D-------------------------3---5------------------------------------------------
A-----------------1---5-----------6---3~---------------------------------------
E-----3-------3----------------------------------------------------------------


e------------------------------------------------------------------------------
B---------------------------------------------3--------------------------------
G---------------------------------3-------5------------------------------------
D---------------------5-------3-5----------------------------------------------
A-----3-------3---6------------------------------------------------------------
E---------4--------------------------------------------------------------------


e------------------------------------------------------------------------------
B------------------------------------------------------------------------------
G----3---3---1---3---3---1---3---3---1---3-------------------------------------
D----3---3---1---3---3---1---3---3---1---3-------------------------------------
A------------------------------------------------------------------------------
E------------------------------------------------------------------------------

Then the chord part is played four times, and then yet another melody part,
except that last line is played on G and B instead of D and G, like this:

e------------------------------------------------------------------------------
B----3---3---1---3---3---1---3---3---1---3-------------------------------------
G----3---3---1---3---3---1---3---3---1---3-------------------------------------
D------------------------------------------------------------------------------
A------------------------------------------------------------------------------
E------------------------------------------------------------------------------

OR, you could play in the same rythm these chords:

C-C-Bb-C-C-Bb-C-C-Bb-C

Then there is a cello solo where the guitar is out, but it returns afterwards
when there's the rythm part is played eight times and the guitar joins the
accordion on the last four.