Song name
# A B C D E F G H I J K L M N O P Q R S T U V W X Y Z

Wwe - Undertaker Ministry tab

Intro
Eb|----------------------------------------------------------------| 
Bb|----------------------------------------------------------------| 
Gb|----------------------------------------------------------------| 
Db|----------------------------------------------------------------| 
Ab|----------------------------------------------------------------| 
Db|---5/9b---------------------------------------------------------| 

Main riff              Palm mute after all 0-7s                    
Eb|----------------------------------------------------------------| 
Bb|----------------------------------------------------------------| 
Gb|----------------------------------------------------------------| 
Db|----------------------------------------------------------------| 
Ab|----------------------------------------------------------------| 
Db|---12-012\---7br-00-7---0-7--7br-00-8-0-7--9br-00-8-----------| 
		
			
Eb|----------------------------------------------------------------| 
Bb|----------------------------------------------------------------| 
Gb|----------------------------------------------------------------| 
Db|----------------------------------------------------------------| 
Ab|----------------------------------------------------------------| 
Db|-0-8--8br-00-8----0-7-7br-7b----0-7-8br-8b-----0-77h8-00-7----| 

                                                            
Eb|----------------------------------------------------------------| 
Bb|----------------------------------------------------------------| 
Gb|----------------------------------------------------------------| 
Db|----------------------------------------------------------------| 
Ab|----------------------------------------------------------------| 
Db|-0-7-8br-00-8-0-7-78b-------------------------------------------| 

Solo
Eb|----------------------------------------------------------------| 
Bb|--15W---------------------------------------------------17bu----| 
Gb|----------------------------------------------------------------| 
Db|-----------------------------15h1614h15-13h4-10p-7b------------| 
Ab|--------12h13h12h13--15-------------------------------------7W--| 
Db|----------------------------------------------------------------| 

Reapeat Main riff throuought song


W=Whammy bar
B=bend
Bu=bend up
Tap to rate this tab
 
# A B C D E F G H I J K L M N O P Q R S T U V W X Y Z