Song name
# A B C D E F G H I J K L M N O P Q R S T U V W X Y Z

Wyclef Jean - It Doesnt Matter tab

I saw someone else's tab, and figured out the lead line (the horn one)

Here it is:

e-----------------------------|
B-----------------------------|
G--------10-9----10-9---------|
D--7-10-------10------10-9-7--|
A-----------------------------|
E-----------------------------|

There you go, the other tab here it is.. Credit goes to this guy:  GRANDMASTRKENNAY@aol.com

e--x-x-5-x-x-5--x-x-7--|
b--x-x-5-x-x-5--x-x-7--|
g--x-x-5-x-x-5--x-x-7--|
d----------------------|
a----------------------|
e----------------------|

It's a cool song, thats fun to play


Enjoy
Tap to rate this tab
# A B C D E F G H I J K L M N O P Q R S T U V W X Y Z