Song name
# A B C D E F G H I J K L M N O P Q R S T U V W X Y Z

Wyclef Jean - Heavens In New York chords

Highlighted       Show chord diagrams
A nice way to play this acoustic would be to let 1 guitarist play the tabs below 
and the other play the full chords. This song is pending on the drums and the bas 
and its hard to hear whats being played in the verses. But I think it work out 
fine to play the same but just softer. Let the song be dominating in the verses.

| /   slide up
| \   slide down
| h   hammer-on
| p   pull-off

Capo 1
This is not exact how they play but it works fine. The chords are correct anyway.

Intro
e|-------------------------------------------------------------------------|
B|-------------------------------------------------------------------------|
G|-------------------------------------------------------------------------|
D|--------------------------------------------------3--3h5-p3--------------|
A|--------------------------------------------3--/5-----------5p3----------|
E|-------------------------------------------------------------------------|

chorus
        F     | C           | Am7    | Bb
e|-----3-/5\-3-------------------------------------------------------------|
B|-------------------1-3-1--------1---------3/-1---------------------------|
G|---2----------------------------0-------------2/-0-----------------------|
D|-3---------------2------------2---2-----3--------------------------------|
A|--------------3-------------0--------1-----------------------------------|
E|-------------------------------------------------------------------------|

Chorus
             F
If it was my last day on earth 
      C
I'd treat it like my first
Am7               Bb
go out the way i came in
                F                   C
so innocent so pure with no thoughts of insecurity
      Am7                     Bb
Live life to the fullest be what i wanna be
     F                        C                         Am7      Bb
Last day on earth I tell my momma dont cry I'll see my daddy in paradise
          F                   C                              Am7
Where the blind can see, the mute can talk, the crippled can walk
         Bb  (Both guitars, Drums bas on orginal)   F
but for now Heaven's in New York
C        Am7        Bb                  F     C       Am7    Bb
Ohohohohohoho ohohohohoh heavens in new york ohohohohoh ohohohohoh

(Hard to hear what they play, But I think its F C C Bb or F C am7 Bb) Bas dominating verseparts.

First thing I'd do is go back in time take the twin towers, put it back in the skyline
Tell my girl two wrongs still dont make a right
Make love for the last time under the candlelight
Pick up my hommies at the gentleman club after that hit 
Man i sucked as a quarterback remember getting sacked man almost broke my back

Chorus (Girl instead of Momma)

                F     C        Am7        Bb                  F     C       
Heavens in new york Ohohohohohoho ohohohohoh heavens in new york ohohohohoh 
Am7    Bb
ohohohohoh X2

Vers2

Chorus (Hommies instead of momma)

                F     C        Am7        Bb                  F     C       
Heavens in new york Ohohohohohoho ohohohohoh heavens in new york ohohohohoh 
Am7    Bb
ohohohohoh

Stick
Bb                             C                                   Am7
Even though I walk through the Valley of Shadow of Death I fear No evil 
Bb                     Bb                           C
For you are with me so tell my loves ones please donít cry 
         Am7            C
Cause if doves can fly so can I

Chorus (Hommies instead of momma)

                F     C        Am7        Bb                  F     C       
Heavens in new york Ohohohohohoho ohohohohoh heavens in new york ohohohohoh 
Am7    Bb
ohohohohoh X2

Rap (yoyo cool something something yea)


If you are interested in what the bas play in the verses, write on my profile or mail me.

Have fun!
Tap to rate this tab
# A B C D E F G H I J K L M N O P Q R S T U V W X Y Z