Song name
# A B C D E F G H I J K L M N O P Q R S T U V W X Y Z

Wyclef Jean - 911 Feat. Mary J Blige tab

Artist: Wyclef Jean feat. Mary J. Blige
Album: The Ecleftic (2000)
Written by: Wyclef Jean

Tabbed by Christian Odelmalm, e-mail me at digital_details@hotmail.com
______________________________________________________________________

  1  +   2  +  3  +  4  +   1  +  2  +  3  +  4  +
  em                        hm
|-------------------------|-------------------------|
|------5/12-10------------|----------3--------------|
|--------------12-11-12-9-|-------4-----------------|
|-------------------------|----4--------------------|
|-------------------------|-2-----------------------|
|-0-----------------------|-------------------------|


  1  +   2  +  3  +  4  +   1  +  2  +  3  +  4  +
  am                        G          hm
|-------------------------|----------3-----------2-|
|------5/12-10------------|-------0----------------|
|--------------12-11-12-9-|----0--------------4----|
|-------------------------|----------------4-------|
|-0-----------------------|------------/2----------|
|-------------------------|-3----------------------|


Repeated again and again and again and again...

Enjoy!
______________________________________________________________________
digital_details@hotmail.com
Tap to rate this tab
# A B C D E F G H I J K L M N O P Q R S T U V W X Y Z