Song name
# A B C D E F G H I J K L M N O P Q R S T U V W X Y Z

Wyclef Jean - Gone Till November tab

Wyclef Jean - Gone til November (Google Performance)
http://www.youtube.com/watch?v=V8BEM9a9g44
tabbed by Ben Bruce 09/04/10

This is my first tab to an amazing song. Hope you enjoy!

Chords:

E  [022100]
A  [577655] and *[57760x] *I mix this in while strumming the [A]. Listen to the song for 
correct timing.
B7 [x21202]
Bm [244322]

e|-----------0-----|-----------0-----|-------------0-----|-----0-----0-----|
B|---------0---0---|---------0---0---|-------2-3-----3---|-2-----0-----0---|
G|-1-1-2-4-------4-|-2-2-4-1-------1-|-2/4-4-----0-----0-|---0-----4-----4-|
D|-----------------|-----------------|-------------------|-----------------|
A|-----------------|-----------------|-------------------|-----------------|
E|-------0---------|-0-0---0---------|-0---0-0-0---------|-0-----0---------|

e|-------------0-----|---0-------0-----|-----0---0-----0-|---0--------------|
B|-------2-3-----3---|-2---2---0---0---|---0-------0-----|-----0------------|
G|-2/4-4-----0-----0-|-------4-------4-|-2-----1-----1---|-------1----------|
D|-------------------|-----------------|-----------------|-4-----2----------|
A|-------------------|-----------------|-----------------|-------2----------|
E|-0---0-0-0---------|-------0---------|-0-----0---------|-0-----0----------|

e|-----------0-----|-----------0-----|-------------0-----|---0-------0-----|
B|---------0---0---|---------0---0---|-------2-3-----3---|-2---2---0---0---|
G|-1-1-2-4-------4-|-2-2-4-1-------1-|-2/4-4-----0-----0-|-------4-------4-|
D|-----------------|-----------------|-------------------|-----------------|
A|-----------------|-----------------|-------------------|-----------------|
E|-------0---------|-0-0---0---------|-0---0-0-0---------|-------0---------|

                                                     ...so I'll be gone til
e|-------------0-----|---0-------0-----|-----0-----0----|-0-0-0............|
B|-------2-3-----3---|-2---2---0---0---|---0---------0--|-0-0-0............|
G|-2/4-4-----0-----0-|-------4-------4-|-2-----1-1------|-1-1-1............|
D|-------------------|-----------------|----------------|-2-2-2............|
A|-------------------|-----------------|----------------|-2-2-2............|
E|-0---0-0-0---------|-------0---------|-0-----0--------|-0-0-0............|

[A]  Said I'll be gone til November,I'll be gone til November. Tell my girl I'll be gone 
November.
[E]  I'll be gone til November,I'll be gone til November. Tell the hustlers I'll be gone 
November.
[A]  January, February, March, April, May. I here you crying, but girl I can't stay.
[E]  I'll be gone til November, I'll be gone...
[B7] Ay ay ay ay ay

[E]  Girl I gotta leave,
[Bm] please don't cry.
[E]  When I come back,
[Bm] you know the limits the sky.
[E]  I'll take you out to dinner,
[Bm] to your favorite spot.
[E]  Feed you an aphrodisiac,
[Bm] just to get you hot.
[E]  Drive by movies,
[Bm] by the cemetery.
[E]  If my corpse could talk,
[Bm] then I would tell him I was sorry.
[E]  Life styles of the rich and famous.
     Some die with a name, some die nameless.

[E]  Every,
[Bm] time I make a run,
[E]  girl,
[Bm] you turn around and cry.
[E]
[Bm] I ask myself
[E]  Why oh,
[Bm] why?
[E]
[Bm] See you must understand
[E]  I,
[Bm] can't work a nine to five
[E]
[Bm] So I'll be gone...
[E]
[Bm] til November

[A]  Said I'll be gone til November,I'll be gone til November. Tell my girl I'll be gone 
November.
[E]  I'll be gone til November,I'll be gone til November. Tell the hustlers I'll be gone 
November.
[A]  January, February, March, April, May. I here you crying, but girl I can't stay.
[E]  I'll be gone til November, I'll be gone...
[B7] Ay ay ay ay ay

************************************

| /   slide up
| \   slide down
| h   hammer-on
| p   pull-off
| ~   vibrato
| +   harmonic
| x   Mute note
| b   Bend
| pb  Pre-bend
| br  Bend release
| pbr Pre-bend release
| brb Bend release bend

************************************
Tap to rate this tab
 
# A B C D E F G H I J K L M N O P Q R S T U V W X Y Z