Song name
# A B C D E F G H I J K L M N O P Q R S T U V W X Y Z

Wyclef Jean - 911 tab

1st Guitar:

e|-------------------------------------------------------------------|
B|-----5/12-10-8-7-8-5---------------5/12-10-8-7-8-5-----------------|
G|---------------------------7-----------------------------4-------7-|
D|-------------------------9-----------------------------5-------9---|
A|-----------------------9-------0---------------------5-------9-----|
E|-0-------------------7-----------------------------3------/7-------|

2nd Guitar:

e|-----------------------------------------------|
B|-----------------------------------------------|
G|-------0---------7---------5---------4-------7-|
D|-----2---------9---------7---------5-------9---|
A|---2---------9---------7---------5-------9-----|
E|-0---------7---------5---------3------/7-------|

And it repeats throughout
Tap to rate this tab
 
# A B C D E F G H I J K L M N O P Q R S T U V W X Y Z